Killing Heidi

Astral Boy Chords, Tabs



More from Killing Heidi

Killing Heidi Tabs
Killing Heidi Chords
Killing Heidi Bass
Killing Heidi Lyrics

#-----------------------------PLEASE NOTE-------------------------------------#
#This OLGA file is the author's own work and represents their interpretation  #
#of the song. You may only use this file for private study, scholarship, or   #
#research. Remember to view this file in Courier, or some other monospaced    #
#font. See http://www.olga.net/faq/ for more information.                     #
#-----------------------------------------------------------------------------#



Subject: k/killing_heidi/astral_boy.tab


Artist: Killing Heidi
Song: Astral Boy
Release: Reflector
Transcribed By: Dylan Colson (hhoottmmaaiill253@hotmail.com)

Pretty easy song, should only take a few miniutes to pick it.

INTRO/VERSE
										 x2
|--------------|--------------|----------------|--------------|
|--0-----0-----|--7-----7-----|--8-----8-----3-|-3-----5------|
|----5-----5---|----0-----0---|----0-----0-----|---0-----0----|
|--------------|--------------|----------------|--------------|
|--7---7-7---7-|--5---5-5---5-|--7---7-7---0-2-|-3---3-3---3--|
|--------------|--------------|----------------|--------------|

CHORUS
									     x2
|--------------|--------------|--------------|--------------|
|--1-----1-----|--3-----3-----|--2-----2-----|--3-----3-----|
|----0-----0---|----0-----0---|----0-----0---|----0-----0---|
|--------------|--------------|--------------|--------------|
|--0---0-0---0-|--2---2-2---2-|--0---0-0---2-|--3---3-3---3-|
|--------------|--------------|--------------|--------------|

VERSE 2
										 x2
|--------------|--------------|----------------|--------------|
|--0-----0-----|--7-----7-----|--8-----8-----3-|-3-----5------|
|----5-----5---|----0-----0---|----0-----0-----|---0-----0----|
|--------------|--------------|----------------|--------------|
|--7---7-7---7-|--5---5-5---5-|--7---7-7---0-2-|-3---3-3---3--|
|--------------|--------------|----------------|--------------|

CHORUS 2
									     x2
|--------------|--------------|--------------|--------------|
|--1-----1-----|--3-----3-----|--2-----2-----|--3-----3-----|
|----0-----0---|----0-----0---|----0-----0---|----0-----0---|
|--------------|--------------|--------------|--------------|
|--0---0-0---0-|--2---2-2---2-|--0---0-0---2-|--3---3-3---3-|
|--------------|--------------|--------------|--------------|

 








BRIDGE/BREAK

|------------------|------------------|-------------|---------2-|
|--5---7-5-4---0---|--3---5-3-2---0---|-1-----1-----|-------0---|
|------------------|------------------|---0-----0---|-----2-----|
|------------------|------------------|-------------|---1-------|
|--7-7-----6-6---6-|--5-5-----4-4---4-|-3---3-3---3-|-2---------|
|------------------|------------------|-------------|-----------|

x2
|-------------|-------------|
|--5-----5--7-|-3-----3-----|
|----0--------|---0-----0---|
|-------------|-------------|
|--7---7-7--9-|-5---5-5---5-|
|-------------|-------------|

|------------------|------------------|-------------|---------2-|
|--5---7-5-4---0---|--3---5-3-2---0---|-1-----1-----|-------0---|
|------------------|------------------|---0-----0---|-----2-----|
|------------------|------------------|-------------|---1-------|
|--7-7-----6-6---6-|--5-5-----4-4---4-|-3---3-3---3-|-2---------|
|------------------|------------------|-------------|-----------|

VERSE 3
										 x2
|--------------|--------------|----------------|--------------|
|--0-----0-----|--7-----7-----|--8-----8-----3-|-3-----5------|
|----5-----5---|----0-----0---|----0-----0-----|---0-----0----|
|--------------|--------------|----------------|--------------|
|--7---7-7---7-|--5---5-5---5-|--7---7-7---0-2-|-3---3-3---3--|
|--------------|--------------|----------------|--------------|

CHORUS 3
									     x2
|--------------|--------------|--------------|--------------|
|--1-----1-----|--3-----3-----|--2-----2-----|--3-----3-----|
|----0-----0---|----0-----0---|----0-----0---|----0-----0---|
|--------------|--------------|--------------|--------------|
|--0---0-0---0-|--2---2-2---2-|--0---0-0---2-|--3---3-3---3-|
|--------------|--------------|--------------|--------------|

END ON

 








|--3~~-|
|--3~~-|
|--0~~-|
|--2~~-|
|--3~~-|
|------|
Get this song at amazon.com      Ebay     Ringtones Ringtones  


Learn to play: Songwriting, Piano, Harmonica, Guitar
Also available at Muzikum: Killing Heidi - Astral Boy lyrics

Related Killing Heidi Chords

Mascara chords
Astral Boy chords
Heavensent chords


Guitar Tabs









All tabs are property and copyright of their owners. All tabs provided for educational purposes only. Privacy Policy, DMCA