Kentucky Headhunters

Kentucky Headhunters - Dumas Walker lead guitar tab

SOLO1

|-----------------------------------------------------8br-p6-8-6-------------------------------|

|-3-(3)--3-------------------------------------------------------8-6-8-------------------------|

|----5b----5br-p3-5-3-------7b-5-3-------3b----------------------------3b-----------------3h4--|

|--------------------5----5---------5-3h5--------------------------------5------3h5------------|

|---------------------5------------------------------------------------------------------------|

|----------------------------------------------------------------------------------------------|

|----------------------------------------------------------------------------------------------|

|-3-6-5p3---3---3b--------3b-3b-------3b-3b------------3-6-5p3-3-------------------------------|

|---------5-----3b--------3b-3b-------3b-3b-------3h4---------5--5---5p3--------3b-------------|

|-------------------5-5----------5-5---------5-5-------------------5------5-3h5----------------|

|----------------------------------------------------------------------------------------------|

|----------------------------------------------------------------------------------------------|

SOLO2

|-8b-6------------------5b-5b-3---3-3---3\---6b^^^^-(X16)--------------------------------------|

|--------8-6-8-8--5-8---------- 5-----5------5b^^^^-(X16)--------------------------------------|

|----------------------------------------------------------------------------------------------|

|----------------------------------------------------------------------------------------------|

|----------------------------------------------------------------------------------------------|

|----------------------------------------------------------------------------------------------|

OUTRO

|-8br-p6-8-6--------------------------5--------------------------------------------------------|

|------------8-6-8--8-8-5-8-------------8---5---3----------------------------------------------|

|--------------------------------4--7-----7---7---5-3h4----------12\---------------------------|

|------------------------------5------------------------5--------12\---------------------------|

|----------------------------------------------------------------10\---------------------------|

|----------------------------------------------------------------------------------------------|

Get this song at:  amazon.com sheetmusicplus.com

Share your thoughts

0 Comments found