Kentucky Headhunters

Kentucky Headhunters - Dumas Walker bass tab

Intro:

G D

G|--------|--------|-------|

D|--------|5-------|-------|

A|----5---|--7-5---|5-5----|

E|3-7---7-|------7-|-------|

Chorus:

G C

G|--------|--------|--------|--------|--------|5-------|

D|--------|5-------|--------|5-------|----5---|--7-5---|

A|----5---|--7-5---|----5---|--7-5---|3-7---7-|------7-|

E|3-7---7-|------7-|3-7---7-|------7-|--------|--------|

G D G D

G|--------|--------|--------|7-------|--------|--------|

D|--------|5-------|----7---|--9-7---|--------|--------|

A|----5---|--7-5---|5-9---9-|------9-|----5---|-345----|

E|3-7---7-|------7-|--------|--------|3-7---7-|--------|

Verse:

G C

G|--------|--------|--------|--------|--------|5-------|

D|--------|5-------|--------|5-------|----5---|--7-5---|

A|----5---|--7-5---|----5---|--7-5---|3-7---7-|------7-|

E|3-7---7-|------7-|3-7---7-|------7-|--------|--------|

G D C A D

G|--------|--------|--------|--------|--------|--------|

D|--------|5-------|----7---|----7---|--------|----7-9-|

A|----5---|--7-5---|5-9---9-|3-5---9-|0-2-3-4-|5-9-----|

E|3-7---7-|------7-|--------|--------|--------|--------|

G|7-7-----|

D|--------|

A|--------|

E|--------|

Just the basics, play with a swing feel.

Get this song at:  amazon.com sheetmusicplus.com

Share your thoughts

0 Comments found