Kenny Wayne Sheperd

Kenny Wayne Sheperd - Rudolph The Red Nosed Reindeer guitar tab

Rudolph the Red Nosed Reindeer

Kenny Wayne Shepherd (Merry Guitar Christmas)

Tabbed by: Ace, appetite_monster@hotmail.com

Eb-tuning

--------------------------------------------

-----------9-----------------------12---10--

--7h9--7------11--9---9h11p9h11p9------(9)--

---------9----------------------------------

--------------------------------------------

--------------------------------------------

The last 9 there is optional

-------------------------------------

--7-7--9bh--7--5-----5----5-7-5------

------------------7-------------7-6--

-------------------------------------

-------------------------------------

-------------------------------------

If anyone has the rest for this mail me!

Get this song at:  amazon.com sheetmusicplus.com

Share your thoughts

0 Comments found