Keith Urban

Keith Urban - Somebody Like You (banjo ) banjo guitar tab

Keith Urban

Somebody Like You (banjo intro)

D||--1/---2-------2-----2/-|--4---------4--2-----4/-|--6---------------6/-7--|

B||------------0-----0-----|-------0----------0-----|-------0----5--0--------|

G||------------------------|------------------------|------------------------|

D||------------------------|------------------------|------------------------|

G||------------------------|------------------------|------------------------|

-------7--------------||

--0---------5----0----||

----------------------||

----------------------||

----------------------||

Get this song at:  amazon.com sheetmusicplus.com

Share your thoughts

0 Comments found