Kamikazee

Kamikazee - Ung Tagalog guitar tab

Title: Ung Tagalog

Artist: Kamikazee

Album: Kamikazee

Tabbed By: Toppet

Email: cats295@hotmail.com

Date: 02/25/03 12:42 AM

This is my very first tab... please bear with me.. thank you!

comments, suggestions.. juz mail me at cats295@hotmail.com.. THANX!! m/

ASTIG!!

Mejo inayos ko ung verses... salamat sa mga nag rate ng tab... PEACE!!

Tuning: Standard : E A D G B e (Low to High)

/ - slide up

~ - hold

x - dead string

Intro (Guitar 1)

E |-------------------------------------------------|

B |-------------------------------------------------|

G |--------------------------------------7-x-7------|

D |--------------------------7--7-7-7----7-x-7------|

A |--5/7--7/9--9/11--11/12---7--7-7-7----5-x-5------|

E |--0----0----0-----0-------5--5-5-5---------------|

E |-------------------------------------------------|

B |-------------------------------------------------|

G |--7/9--9/11--11/13--13/15-------------7----------|

D |--x/x--x/x----x/x----x/x----7--7-7-7--7----------|

A |--5/7--7/9----9/11--11/12---7--7-7-7--5----------|

E |--0----0-----0-------0------5--5-5-5-------------|

Intro (cont.)

Guitar 1 & 2

E |-------------------------------------------------|

B |-------------------------------------------------|

G |------------------------------7-x-7--------------|

D |--2-2-2-2-2-2-2---7--7-7-7----7-x-7--------------| 2x

A |--2-2-2-2-2-2-2---7--7-7-7----5-x-5--------------|

E |--0-0-0-0-0-0-0---5--5-5-5-----------------------|

Guitar 1

E |-------------------------------------------------|

B |-------------------------------------------------|

G |--7/9--9/11--11/13--13/15-------------7-x-7------|

D |--x/x--x/x----x/x----x/x----7--7-7-7--7-x-7------| 2x

A |--5/7--7/9----9/11--11/12---7--7-7-7--5-x-5------|

E |--0----0-----0-------0------5--5-5-5-------------|

Guitar 2

E |-------------------------------------------------|

B |-------------------------------------------------|

G |------------------------------7-x-7--------------|

D |--2-2-2-2-2-2-2---7--7-7-7----7-x-7--------------| 2x

A |--2-2-2-2-2-2-2---7--7-7-7----5-x-5--------------|

E |--0-0-0-0-0-0-0---5--5-5-5-----------------------|

End on

E |------|

B |------|

G |------|

D |--2~--|

A |--2~--| Volume swell...

E |--0~--|

=-=-=-=-=-=-=--=-=-=-=-=-=-=-=-=-=-=-=-=-=-=-=-=-=-=-=-=-=-=-=-=-=-=-=-=-=-=-=-=-=-=-=-=-=-=-=

Riff 1

E5 B5 C#5 A5 A5 G#5 A5 B5

E |---------------------------------------------------------|

B |---------------------------------------------------------|

G |--9------------------------------------------------------|

D |--9---9-9--11-11--7-7--7---6-6--7-7--9-9-----------------| 2x

A |--7---9-9--11-11--7-7--7---6-6--7-7--9-9-----------------|

E |------7-7--9--9---5-5--5---4-4--5-5--7-7-----------------|

E5 C#m5

Sampung taon na akong nanliligaw sa'yo,

A5 B5

At hindi ko na malaman kung ano ang gusto mo,

E5 C#m5

Nagmukha na kong katulong, driver at alalay mo,

A5 B5

bawat araw ng linggo, inaraw-araw mo!

E5 B5 C#5 A5 A5 G#5 A5 B5

E |---------------------------------------------------------|

B |---------------------------------------------------------|

G |--9------------------------------------------------------|

D |--9---9-9--11-11--7-7--7---6-6--7-7--9-9-----------------| 2x

A |--7---9-9--11-11--7-7--7---6-6--7-7--9-9-----------------|

E |------7-7--9--9---5-5--5---4-4--5-5--7-7-----------------|

E5 C#m5

Akala ko pa no'n may pagasa sa'yo

A5 B5

Dahil sa iyong sinabi na maghintay lang ako,

E5 C#m5

Ngunit isang araw nagulat nang naglalakad ako,

A5 B5

may kasama kang iba nakayakap pa sa'yo!

CHORUS:

E5 A5 C#5 B5

Sana'y di na umasa pa,

E5 A5 C#5 B5

Mukha tuloy akong tanga,

E5 A5 C#5 A5

Noon pa man ay mahal ka na

E5 A5 C#5 A5

Ngunit sinayang sa wala..

Interlude: i think its in "E"...(sorry peeps... di ko alam ung lead sa interlude)

Riff 2 (Guitar 1):

E |----0------0------0------0------0-----0-----0------0-------|

B |------0------0------0------0------0-----0-----0------0-----|

G |-----------------------------------------------------------|

D |-----------------------------------------------------------| (4x)

A |--7------7------4------4-----------------------------------|

E |------------------------------5------5-----7-----7---------|

Riff2

Pakinggan, ang aking sasabihin.

Nang ulitin, makinig ka na,

Riff 3 (Guitar 2)

E |-----------------------------------------|

B |-----------------------------------------|

G |---9--------6----------------------------|

D |---9-(12x)--6-(12x)--7--------9----------| 2x

A |---7--------4--------7-(12x)--9-(12x)----|

E |---------------------5--------7----------|

PM...................................

Riff 4 (Guitar 2::w/o palm mute)

E |-----------------------------------------|

B |-----------------------------------------|

G |---9--------6----------------------------|

D |---9-(12x)--6-(12x)--7--------9----------| 2x

A |---7--------4--------7-(12x)--9-(12x)----|

E |---------------------5--------7----------|

Riff3

Riff2

Kung biglaan, ika'y aking iwanan,

sana'y di mo makayanan, mamatay ka na!

Riff4

mamatay ka na, mamatay ka na, mamatay ka na...agad!

mamatay ka na, mamatay ka na, mamatay ka na agad!!

Riff 5

E |---------------------------------------|

B |---------------------------------------|

G |--9------------------------------------|

D |--9------9-11------5-7------8-9--------|

A |--7------9-11------5-7------8-9--------|

E |---------7-9-------3-5------6-7--------|

Riff 6 (w/ E5 in background)

E |-----------------------------------------------------|

B |-----------------------------------------------------|

G |--9--------------------------------------------------|

D |--9------9-11------5-7------9--9-9-9-9-9-9-9-9-9-9---|

A |--7------9-11------5-7------9--9-9-9-9-9-9-9-9-9-9---|

E |---------7-9-------3-5------7--6-7-6-7-6-7-6-7-6-7---|

CHORUS:

E5 A5 C#5 B5

Sana'y di na umasa pa,

E5 A5 C#5 B5

Mukha tuloy akong tanga,

E5 A5 C#5 A5

Noon pa man ay mahal ka na

E5 A5 C#5 A5

Ngunit sinayang sa wala..

Riff 1

Tama bang umasa pa at maghintay lang sa wala?

Riff 1

Tama bang niloko mo, sinayang mo ang oras ko?

Riff 1

Bakit ka ganyan sinta? wala ka bang nadarama?

E5 B5 C#5 A5 A5 G#5 A5 B5 (E)

Bakit ba niloko mo, sinayang oras.... ko!?

OUTRO: E (Parang sa interlude... di ko din alam e.. sorry.. peace!)

Get this song at:  amazon.com sheetmusicplus.com

Share your thoughts

0 Comments found