Kamikazee

Kamikazee - Turon guitar tab

Guitar 1--Metal Distortion

Guitar 2--Fuzz Distortion

Intro

Riff 1

Guitar 1

P.M. ....................

E|-------------------------------|

B|-------------------------------|

G|-------------------------------|

D|-------------------------------| repeat three times, with occasional slide

A|-2-1-0--2-1-0--2/-2-1-0--2-1-0/|

E|-2-1-0--2-1-0--2/-2-1-0--2-1-0/|

*Enter Snare*

Guitar 1 and Guitar 2

E|----------------------------|

B|----------------------------|

G|----------------------------| repeat three times, then quickly shift to...

D|----------------------------|

A|-2-1-0-2-1-0-2/-2-1-0-2-1-0/|

E|-2-1-0-2-1-0-2/-2-1-0-2-1-0/|

Riff 2

E|-----------------------------|

B|-----------------------------|

G|-----------------------------|

D|-----------------------------| repeat once, then end in...

A|-2-1-0--2-1-0--2h0-2h0-2-1-0-|

E|-2-1-0--2-1-0--2h0-2h0-2-1-0-|

P.M....

A|-0000/

E|-0000/

E|-----------------------------|

B|-----------------------------|

G|-----------------------------|

D|-----------------------------| repeat once, then quickly shift to...

A|-2-1-0--2-1-0--2h0-2h0-2-1-0-|

E|-2-1-0--2-1-0--2h0-2h0-2-1-0-|

Verse Riff

"Kumuha ng sabaaaaa..."

Guitar 1

E|-----------------|

B|-----------------|

G|-----------------|

D|-----------------|

A|-0-1-0-1-0-1-0-1-|

E|-0-1-0-1-0-1-0-1-|

*Enter Bass and Guitar 2*

"Wag kalimutan ang langkaaaaaa...."

E|-----------------|

B|-----------------|

G|-----------------|

D|-----------------|

A|-0-1-0-1-0-1-0-1-|

E|-0-1-0-1-0-1-0-1-|

"Ikaw na ang bahala kung nakabukas o nakaselyadooooo..."

Repeat riff 2

Guitar 2

"Haluing dahan-dahan.."

E|-----------------|

B|-7-7-7--6-6--5-5-|

G|-----------------|

D|-----------------|

A|-----------------|

E|-----------------|

"Hanggang ito'y maging medyo brown!"

E|-7-7--6-6--5-5-4-5-|

B|-------------------|

G|-------------------|

D|-------------------|

A|-------------------|

E|-------------------|

Interlude

*Bass Drum Roll*

Both guitars (remove effects)

E|-0-0-0-0--0-0-0-|

B|-0-0-0-0--0-0-0-|

G|-0-0-0-0--0-0-0-|

D|-0-0-0-0--0-0-0-|

A|-0-0-0-0--0-0-0-|

E|-0-0-0-0--0-0-0-|

"Iiii.."

*Add effects*

"ahon mo naaaa!!!! (yeah,nasusunog!!)"

Repeat Riff 1

Repeat Riff 2, then

P.M....

A|-0000/

E|-0000/

Jam

Guitar 1

*Listen for strumming pattern*

E|----------|

B|----------|

G|----------|

D|----------| repeat as necessary

A|----------|

E|-/6-\5432-|

Then

E|-------------------------|

B|-------------------------|

G|-------------------------|

D|-------------------------|

A|-0-xx-1-xx-0-xx----------|

E|-0-xx-1-xx-0-xx-/6-\5432-|

"Anong maling ginawa mo, nasunog ang turon...."

Repeat riff 1

"IAHON MO NAaaaaa..."

E|----------------------|

B|----------------------|

G|----------------------|

D|----------------------|

A|-22-x-22-x-22-x-22-//-|

E|-00-x-00-x-00-x-00-//-|

"Nasaaaayaaang ang tuuurooonn...nasunog na!!!!"

E|---------------|

B|---------------|

G|---------------|

D|---------8/9/8-| repeat as necessary

A|-22-x-00-8/9/8-|

E|-00-x-00-6/7/6-|

Final riff

P.M. ....................

E|-------------------------------|

B|-------------------------------|

G|-------------------------------|

D|-------------------------------| repeat three times

A|-2-1-0--2-1-0--2/-2-1-0--2-1-0/|

E|-2-1-0--2-1-0--2/-2-1-0--2-1-0/|

Get this song at:  amazon.com sheetmusicplus.com

Share your thoughts

0 Comments found