Kamikazee

Kamikazee - Petix guitar tab

Standard Tuning

e|--------------------------------------------|

B|--------------------------------------------|

G|--------------------------------------------|

D|--------------------------------------------|

A|------5454335430-------54543375-------------|

E|--33---------------33-----------------------|

e|---3------3------------------|

B|---3-3x---5------------------|

G|---4------5------------------|

D|-----------------------------|

A|-----------------------------|

E|-----------------------------|

Get this song at:  amazon.com sheetmusicplus.com

Share your thoughts

0 Comments found