Kamikazee

Kamikazee - Petix Bass guitar tab

PETIX(bass tabs) – KAMIKAZEE

(MAHAROT)

Tuning- standard

Legends used:

/ - slide

h – hammer on

Intro: 4X

G------------------------------------l

D------------------------------------l

A-----5-5-33-2h32---5-5-33-5h75------l

E--33--3---------33--3---------------l

Verse 1: 2X

G------------------------------------l

D-------5---------754----------------l

A-----57-757-----7---55/7/5----------l

E-33---------33----------------------l

G------------------------------------l

D-------5----------------------------l

A-----57-757-----55h75-0h20h2--------l

E-33---------33----------------------l

Then... 2X

G------------------------------------l

D------------------------------------l

A-----5-5-33-2h32---5-5-33-5h75------l

E--33--3---------33--3---------------l

Verse 2:

G------------------------------------l

D-------5---------754----------------l

A-----57-757-----7---55/7/5----------l

E-33---------33----------------------l

G------------------------------------l

D-------5----------------------------l

A-----57-757---------333-------------l

E-33---------3(pause)----------------l

G------------------------------------l

D-------5---------754----------------l

A-----57-757-----7---55/7/5----------l

E-33---------33----------------------l

G------------------------------------l

D-------5----------------------------l

A-----57-757-----55h75-0h20h2--------l

E-33---------33----------------------l

Chorus: 8X

G------------------------------------l

D------------------------------------l

A-----5-5-33-2h32---5-5-33-5h75------l

E--33--3---------33--3---------------l

Then... 6X

G------------------------------------l

D--------------2255------------------l

A-----2255-3355----------------------l

E-3355-------------------------------l

Bridge: 2X

G------------------------------------l

D------------------------------------l

A----2---3-5h75h75----2---3-5-7-10---l

E-3-5--5-----------3-5--5------------l

G------------------------------------l

D------------------------------------l

A----2---3-5h75h75----2---3-5h75-----l

E-3-5--5-----------3-5--5-------573--l

Chorus: 6X

G------------------------------------l

D------------------------------------l

A-----5-5-33-2h32---5-5-33-5h75------l

E--33--3---------33--3---------------l

First time q pow gumawa at magsubmit ng tab...

Rinig n rinig xe ung bass, kya mejo ndalian aq s pakuha ng tabs.

Sa tingin q nman pow accurate yan.

Pero kung may corrections pow kyu, pki pm pow sken

webmaster at tabs-database.com.com

Salamat!!1 ^_^

\\m/Added by tabs-database.com and our distinguished partners

Get this song at:  amazon.com sheetmusicplus.com

Share your thoughts

0 Comments found