Kamikazee

Kamikazee - Narda guitar tab

I DEDICATE THIS SONG SA LAHAT NG MGA BRKADA KO AT KA BATCH KO D2 SA DAVAO!!!! ASTIG

kay pILtz na laging tumatambay d2 sa bhay para tulungan ako hehe!! At especially kay Lord...

Sa mga hinDi pa nakakarinig ng song na 2,,subukan nyu minsan makinig ASTIG 2!!! e2 yung

version ng "NARDA"....

kamikazee-narda

INTRO:

E----------------------------------------------------------------------|

B-------3---3--------------3---3------------3---3-----------3---3------|

G----2---2---2---2----------2---2---2--------2---2--2--------2--2------|

D---0--0--0---0--------0-----0---0------0-----0---0-----2-----2-2------|

A--------------------2---2-----------------------------0-0-------------|

E-------------------------------------3---3----------------------------|

yung d2 na part!! sumabay nalng kayu sa song pra makuha nyu ang tyming!!

E---------------------------------------|

B---------------------------------------|

G--77777777-44444444--------------------|

D--77777777-44444444-55555555-77777777--| 2x

A--55555555-22222222-55555555-77777777--|

E--------------------33333333-55555555--|

VERSE:

e2 na yung part na "tila ibon kung lumipad" medyo mabilis 2 ng konti!!! sabayan nyu lng

E------------------------------------------------------------------|

B------------------------------------------------------------------|

G----7---7---7---7----4---4---4---4--------------------------------|

D-----7---7---7---7----4---4---4---4---5---5---5---5----7---7------|

A---5---5---5---5----2---2---2---2------5---5---5---5----7---7-----|

E-------------------------------------3---3---3---3----5---5-------|

CHORUS:

e2 na yung "mapapansin kaya"

E---------------------------------------|

B---------------------------------------|

G--77777777-44444444--------------------|

D--77777777-44444444-55555555-77777777--|

A--55555555-22222222-55555555-77777777--|

E--------------------33333333-55555555--|

VERSE 2:

e2 na yung "ang swerte nga namn ni ding"

E------------------------------------------------------------------|

B------------------------------------------------------------------|

G----7---7---7---7----4---4---4---4--------------------------------|

D-----7---7---7---7----4---4---4---4---5---5---5---5----7---7------|

A---5---5---5---5----2---2---2---2------5---5---5---5----7---7-----|

E-------------------------------------3---3---3---3----5---5-------|

CHORUS:

balik na namn sa "mapapansin kaya"

E---------------------------------------|

B---------------------------------------|

G--77777777-44444444--------------------|

D--77777777-44444444-55555555-77777777--|

A--55555555-22222222-55555555-77777777--|

E--------------------33333333-55555555--|

e2 na yung "break" kagaya lng ito ng verse, so kayo na bhala!!

E------------------------------------------------------------------|

B------------------------------------------------------------------|

G----7---7---7---7----4---4---4---4--------------------------------|

D-----7---7---7---7----4---4---4---4---5---5---5---5----7---7------|

A---5---5---5---5----2---2---2---2------5---5---5---5----7---7-----|

E-------------------------------------3---3---3---3----5---5-------|

VERSE 3:

"tumalon kaya ako sa bangin,para lng iyong sagipin" d2 sa part na2 mga tol may palm mute na!!!

E---------------------------------------|

B---------------------------------------|

G--77777777-44444444--------------------|

D--77777777-44444444-55555555-77777777--|

A--55555555-22222222-55555555-77777777--|

E--------------------33333333-55555555--|

pag-katapos n2ng part na2 balik sa "CHORUS"!!!! tuloy2x lng yun hangang matapos ang song!!!!

*FIRST TAB KO 2 SO PAKI RATE NALNG!!! XENXA NA KUNG MAY MGA MALI BAWI NALNG AKO SUNOD

SALAMAT SA INY0NG LAHAT>>>>

>

Get this song at:  amazon.com sheetmusicplus.com

Share your thoughts

0 Comments found