Kamikazee

Kamikazee - My Tender Bear Bass guitar tab

Intro:

G----------------------------------------|l

D----------------------------------------|l

A------424-4h54-5-5h75-4-----------------|l

E-545------------------------------------|l

G----------------------------------------|l

D----------------------------------------|l

A------424-4h54-5-5h75-777---------------|l

E-545------------------------------------|l

Verses:

G----------------------------------------|l

D----------------------------------------|l

A---------22--44-4542--------------------|l

E-55--22---------------------------------|l

G----------------------------------------|l

D----------------------------------------|l

A---------22--555555554------------------|l

E-55--22---------------------------------|l

Chorus:

G----------------------------------------|l

D----------------------------------------|l

A------424-4h54-5-5h75-4-----------------|l

E-545------------------------------------|l

Huhaa!!!

G---------------------------------------------|l

D---------------------------------------------|l

A-------------------------------------l-------| 8x

E—5-5-55—-2-2-22------------------------------|l

G--------------------------------------------------------|l

D--------------------------------------------------------|l

A-------------2--22222222—4--44444444-6—66666666---------|l

E-5--55555555--------------------------------------------|l

BASS SOLO:

G--------------------------------------------------------|l

D--------------------------------------------------------|l

A-44-5/7-5-4-5-0-44-5/7h97-5-0---------------—-----------|l

E--------------------------------------------------------|l

G--------------------------------------------------------|l

D--------------------------------------------------------|l

A-44-5/7-5-7/10-9-7-999-7-5-0---------------—------------|l

E--------------------------------------------------------|l

G--------------------------------------------------------|l

D--------------------------------------------------------|l

A-44-5/7-5-4-5-0-44-5/7h97-5-----------------—-----------|l

E--------------------------------------------------------|l

G--------------------------------------------------------|l

D--------------------------------------------------------|l

A-7/10-9-7-999-7-5-7/10-9-7-9-5-7-0--------------—-------|l

E--------------------------------------------------------|l

G--------------------------------------------------------|l

D--------------------------------------------------------|l

A-44-5/7-5-4-5-0-0000000000000---------------—-----------|l

E--------------------------------------------------------|l

G----------------------------------------|l

D----------------------------------------|l

A------424-4h54-5-5h75-4-----------------|l

E-545------------------------------------|l

Bridge:

G-------------------------------------------|l

D-----------------------------454-----------|l

A-00-24-20-2--02-02-02-4-55-7-----5---------|l

E-------------------------------------------|l

G-------------------------------------------|l

D-------------------------------------------|l

A-45-45-45----------------------------------|l

E----------5-5-55-2-2-22-55-55-55-55--------|l

G--------------------------------------------------------|l

D--------------------------------------------------------|l

A-222222222—444444444-666666666--------------------------|l

E--------------------------------------------------------|l

Chorus:

G----------------------------------------|l

D----------------------------------------|l

A------424-4h54-5-5h75-4-----------------|l

E-545------------------------------------|l

G---------------------------------------------|l

D---------------------------------------------|l

A-------------------------------------l-------| 8x

E—5-5-55—-2-2-22------------------------------|l

G--------------------------------------------------------|l

D--------------------------------------------------------|l

A-------------2--22222222—4--44444444-6—66666666---------|l

E-5--55555555--------------------------------------------|l

Maraming salamat po…any comments, suggestions, violent reactions..e-mail nio ko:

webmaster at tabs-database.com.com..enjoy!!Added by tabs-database.com and our distinguished partners

Get this song at:  amazon.com sheetmusicplus.com

Share your thoughts

0 Comments found