Kamikazee

Kamikazee - Mundo Ng Komiks guitar tab

Song:Mundo ng Komiks

Sound Track:Komiks

Artist:Kamikazee

Date:April,2006

Tabber:Ryan Manongdo

16 years old,Montalban Rizal

webmaster at tabs-database.com.com(Friendster&YM)

09229015724(Sun Cell)

Notes:Ei mga pips..Madli lang itong song na ito!!Pki pkinggan nyo

na lang para makuha nyo ung tamang timing..Kayo ng bahalang

mag-ayos sa song structure...Kung may mga mali o kya kulang,

kayo ng bahalang mag-tama o mag-dagdag!!Pwede nyo ding lait-

laitin!!Kung may commento o reklamo,Mag-Post a Comment,PM,

Frndster Mess, o kaya Text nyo ako....Peace V and ROCK ON

\\;;/, !!!!!!!!!!

Halika tuloy ka lang,pumasok ka sa aming mundo...

e|-------------------------------------------------|

B|-------------------------------------------------|

G|-------------------------------------------------|

D|-10-10-10--10-10-10-99-88-77---------------------|

A|-------------------------------------------------|

E|-------------------------------------------------|

Sa komiks,sa komiks...

e|-------------------------------------------------|

B|-------------------------------------------------|

G|10-10-10-10----10-10-10-10-1010-9-9-8-8-8-8-7-7--|

D|-------------------------------------------------|

A|-------------------------------------------------|

E|-------------------------------------------------|

e|------------------|

B|------------------|

G|------------------|

D|--xxxx--99--77----|

A|--xxxx--99--77----|

E|--xxxx--77--55----|

Sa komiks pwede ka mangarap...

e|-------------------------------------------------|

B|-------------------------------------------------|

G|10-10-10-10----10-10-10-10-1010-9-9-8-8-8-8-7-7--|

D|-------------------------------------------------|

A|-------------------------------------------------|

E|-------------------------------------------------|

. . . . . . . . . . . . . . . . . .

e|-----------------------------|

B|-----------------------------|

G|---11-10---------11-10b------| 2x

D|-9-------10b--10-------------|

A|-----------------------------|

E|-----------------------------|

Outro:

e|------------------------------------------------------|

B|------------------------------------------------------|

G|------------------------------------------------------|

D|------------------------------------------------------|

A|--8888-8888-9999-8888---6666--8888--8888--9999-8888---|

E|------------------------------------------------------|

.... .... .... .... .... .... .... .... ....

Sa komiks sa komiks....

e|-------------------------------------------------|

B|-------------------------------------------------|

G|10-10-10-10----10-10-10-10--10-10-10-10----------|

D|-------------------------------------------------|

A|-------------------------------------------------|

E|-------------------------------------------------|

. . . . . . . . . . . .

Lyrics by forget_013

Halika na tuloy ka lang

Pumasok ka sa aming mundo

Chorus:

Sa komiks (repeat 6x)

Sa komiks pwede ka mangarap

Sa isang kisapmata

Magagawa ang lahat

Pantasya hiwaga

Nababalot sa bawat pahina

Wag ka lang magtataka

Sa kakaibang makikita

Mga nilalang na hango sa kathang isip

Na pawang gawa gawa

Repeat Chorus

Sa komiks may hatid na drama

Bakbakan at romansa bawat kabanata

May takot at luha nababalot sa bawat pahina

Huwag ka lang mamamangha sa bagay na aking magagawa

Patigilid ang mundo labanan ang multo

Magbago ng anyo lahat ay kaya ko

Repeat Chorus

Halika na tuloy ka lang

Pumasok ka sa aming mundo Repeat 2x

Sa komiks sa komiks pwede ka mangarap kahit ano maisip mo

Sa komiks sa komiks sa komiks halika na

Sa komiks sa komiks pwede ka tumakas at iwanan ang mundo

Sa komiks.....

Enjoi...

Added by tabs-database.com and our distinguished partners

Get this song at:  amazon.com sheetmusicplus.com

Share your thoughts

0 Comments found