Kamikazee

Kamikazee - Martyr Nyebera Bass guitar tab

Song:Martyr Nyebera

Album:Maharot

Artist:Kamikazee

Date:March,2006

Tabber:Ryan Manongdo

16 years old,Montalban Rizal

webmaster at tabs-database.com.com(Friendster&YM)

Notes:Para dun sa Gtr.tab,Recommend ko yung kay Sungao!!Pakinggan

nyo na lang yung song ng maige para makuha nyo ung bass line

sa bridge!!Kung may mga mali o kulang,kyo ng bahalang mag-ayos

o mag-dagdag!!Pwede nyo ding lait-laitin..hehe!!Para nga pala

ito sa mga lovers na laging nag-aaway!!hehehehe...Peace V and

ROCK ON \\;;/, !!!

Gtr.Legends

/ means SLIDE DOWN

\\ means SLIDE IP

~ means LET IT RING

. means PALM MUTING

Intro prt.1:

G-------------------------------|

D-------------------------------| 2x

A-------5-4---4/555--4/555/777--|

E--5-0--------------------------|

Intro prt.2,Verse and Pre-Chorus:

G---------------------|

D---------------------|

A--------55555-77777--|

E--55555--------------|

Before Chorus:

G---------------------|

D---------------------|

A----------5~---------|

E--2~--0~-------------|

G--------------------------------------------------------|

D--------------------------------------------------------| 2x

A-------7777-4444-5555-------7777-4444-5-4-5-4-5-4-5-----|

E--5555-----------------5555-------------------------5---|

Repeat Intro prt.1:

Repeat Verse:

Repeat Pre-Chorus:

Repeat Chorus:

Bridge Gtr.Solo:

G----------------------------------------|

D----------------------------------------|

A-------55555-77777--------55555-7-7-7---|

E-55555--------------55555---------------|

. . .

Bass Line:

G---------------------------------|

D--777--999--11-11-11--14-14-14---| 2x

A---------------------------------| Then

E---------------------------------|

G------------------------------------------------|

D--7777-6666------77-66----77-66----77-66--------|

A------------7777-------77-------77-------7777---|

E------------------------------------------------|

G-----------------------------------------|

D-----------------------------------------|

A------------5555-------------5-4-5~------|

E--2222-0000-------2222--0000-------------|

Acoustic:

Bass Enters(Low Volume)

G-----------------------------------------|

D-----------------------------------------|

A------------7777--44444-55555------------|

E--7\\2--5555------------------------------|

Ending of Bridge:

G-----------------------------------------------|

D-----------------------------------------------|

A-444-222---------------------------------------|

E----------444-55-44-55-444-555-777-555-44-55---|

G-------------------------------------|

D-------------------------------------|

A-444-222---------------444-----------|

E----------444-55-44-55-----555-7-----|

.

Repeat Chorus:

Outro:

G-------------------------------------|

D-------------------------------------|

A-------7777-4444-5-4-5-4-5-4-5-------|

E--5555-------------------------5--5~-|

.

End..

I would like to greet my f*ckin HORNY friends;Ram,Andrei,Louis,

Migs,Geoffrey,Roi,& Nath Ahaha...My Band Mates;Edy,Dino,Jiro,Mik2,

Andrei and Aeroll(Padre Garotte),The DOTA ALL-STARS of NSDAPS San

Mateo Rizal,The Tower RED Records for nothing,Sa mga ka-CSTRIKE at

ka GB ko,Ung mga frndsz ko sa Montalban and my Luv;Cesz!!nyahaha...

V and \\;;/,

Added by tabs-database.com and our distinguished partners

Get this song at:  amazon.com sheetmusicplus.com

Share your thoughts

0 Comments found