Kamikazee

Kamikazee - Martyr Nyebera (4) guitar tab

Song: Martyr Nyebera

Artist: Kamikazee

Tabbed By: Dave Magno

Email Address: jastaluvin@yahoo.com ( add nyo ko sa friendster and

penge testi..)

Mobile #: 09206431415 Chix lng pde..

Tga san ka??: pdeng San Isidro N.E., Gapan o kya Cabanatuan.. hehe

Nakz d2 ko nlng sa martyr nyebera inumpisahan ung 3 tabs ko na

irerelease..

isusunod ko n ung rock version ng narda at ung sa Nobela hehe.. Paki

rate nlng po

confident nmn ako na accurate xa.. pero sna accurate nga hehe

Legend:

. = palm muted

h =hammer-on

/ = slide

x = dead string

Intro 1:

Both Guitars

|----------------------------------------------------------------------|

|----------------------------------------------------------------------|

|------------------7---6----------6/7-7-7--6/7-7-7--6/7-7-7-9-9-9------|

|--7---2--x-x-x-x--7---6--x-x-x-x-x-x-x-x--x-x-x-x--x-x-x-x-x-x-x------| X2

|--7---2--x-x-x-x--5---4--x-x-x-x-4/5-5-5--4/5-5-5--4/5-5-5-7-7-7------|

|--5---0--x-x-x-x---------x-x-x-x--------------------------------------|

Intro 2:

Guitar 1 (Rythm)

|---------------------------------------|

|---------------------------------------|

|--------------------7-7-7-7---9-9-9-9--|X2

|--7-7-7-7-7-7-7-7---7-7-7-7---9-9-9-9--|

|--7-7-7-7-7-7-7-7---5-5-5-5---7-7-7-7--|

|--5-5-5-5-5-5-5-5----------------------|

Guitar 2 (Lead)

|--------------------------------------------------------|

|--------------------------------------------------------|

|--6----7-/-9-7-6----7-/-9-7-6-7-6-7---------------------|

|----7------------7-------------------7-7/9-9/11-9-7-9---|

|--------------------------------------------------------|

|--------------------------------------------------------|

|---------------------------------------------------------|

|---------------------------------------------------------|

|--6----7-/-9-7-6----7-/-9-7-6-7-6-7----------------------|

|----7------------7-------------------7-7/9-9/11-9-7-9-7--|

|---------------------------------------------------------|

|---------------------------------------------------------|

Verse 1:

Guitar 1

Kinukumpleto mo ang araw ko, Sa tuwing inaaway mo

|--------------------------------------------------------------------|

|--------------------------------------------------------------------|

|--------------------------------7--7--7--7--7--7--9--9--9--9--9--9--|

|--7--7--7--7--7--7--7--7--7--7--7--7--7--7--7--7--9--9--9--9--9--9--|

|--7--7--7--7--7--7--7--7--7--7--5--5--5--5--5--5--7--7--7--7--7--7--|

|--5--5--5--5--5--5--5--5--5--5--------------------------------------|

. . . . . . . . . . . . . . . . . . .

Paggising sa umaga mukha mo ang nakita, Wala pang nagawa

nakasimangot na

|--------------------------------------------------------------------|

|--------------------------------------------------------------------|

|--------------------------------7--7--7--7--7--7--9-x-9-x-9-x-9-x---|

|--7--7--7--7--7--7--7--7--7--7--7--7--7--7--7--7--9-x-9-x-9-x-9-x---|

|--7--7--7--7--7--7--7--7--7--7--5--5--5--5--5--5--7-x-7-x-7-x-9-x---|

|--5--5--5--5--5--5--5--5--5--5--------------------------------------|

. . . . . . . . . . . . . .

Guitar 1

at pagsapit ng gabi tampo lalong lumalaki

|--------------------------------------------------------------------|

|--------------------------------------------------------------------|

|--------------------------------7--7--7--7--7--7--9--9--9--9--9--9--|

|--7--7--7--7--7--7--7--7--7--7--7--7--7--7--7--7--9--9--9--9--9--9--|

|--7--7--7--7--7--7--7--7--7--7--5--5--5--5--5--5--7--7--7--7--7--7--|

|--5--5--5--5--5--5--5--5--5--5--------------------------------------|

Guitar 2

|--------------------------------------------------------------------|

|--------------------------------------------------------------------|

|--9--9--9--9--9--9--9--9--9--9--9--9--9--9--9--9--9--9--9--9--9--9--|

|--x--x--x--x--x--x--x--x--x--x--x--x--x--x--x--x--x--x--x--x--x--x--|

|--7--7--7--7--7--7--7--7--7--7--7--7--7--7--7--7--7--7--7--7--7--7--|

|--------------------------------------------------------------------|

Guitar 1

ang gusto ko lambingan ngunit may unan na namamagitan

|--------------------------------------------------------------------|

|--------------------------------------------------------------------|

|--------------------------------7--7--7--7--7--7--9--9--9--9--9--9--|

|--7--7--7--7--7--7--7--7--7--7--7--7--7--7--7--7--9--9--9--9--9--9--|

|--7--7--7--7--7--7--7--7--7--7--5--5--5--5--5--5--7--7--7--7--7--7--|

|--5--5--5--5--5--5--5--5--5--5--------------------------------------|

Guitar 2

|--------------------------------------------------------------------|

|--------------------------------------------------------------------|

|--9--9--9--9--9--9--9--9--9--9--9--9--9--9--9--9--9--9--9--9--9--9--|

|--x--x--x--x--x--x--x--x--x--x--x--x--x--x--x--x--x--x--x--x--x--x--|

|--7--7--7--7--7--7--7--7--7--7--7--7--7--7--7--7--7--7--7--7--7--7--|

|--------------------------------------------------------------------|

Both Guitars

|--------------------------------|

|--------------------------------|

|----------------------------7---|

|---4-4-4-4-----2-2-2-2------7---|

|---4-4-4-4-----2-2-2-2------5---|

|---2-2-2-2-----0-0-0-0----------|

Chorus:

Both Guitars

Ang almusal ay sigawan, Ang Hapunan natin ay tampuhan

|-------------------------------------------------|

|-------------------------------------------------|

|-------------9-9-9-9-9---6-6-6-6-6---7-7-7-7-7---|

|--7-7-7-7-7--9-9-9-9-9---6-6-6-6-6---7-7-7-7-7---|

|--7-7-7-7-7--7-7-7-7-7---4-4-4-4-4---5-5-5-5-5---|

|--5-5-5-5-5--------------------------------------|

Guitar 1

Ang Mirienda pagdududa

|-------------------------------------------------|

|-------------------------------------------------|

|-------------9-9-9-9-9---6-6-6-6-6---7-7-7-7-7---|

|--7-7-7-7-7--9-9-9-9-9---6-6-6-6-6---7-7-7-7-7---|

|--7-7-7-7-7--7-7-7-7-7---4-4-4-4-4---5-5-5-5-5---|

|--5-5-5-5-5--------------------------------------|

Guitar 2

|----------------------------------------------------|

|----------------------------------------------------|

|-------------9-9-9-9-9--6-6-6-6-6--6/7--6/7--6/7----|

|--7-7-7-7-7--9-9-9-9-9--6-6-6-6-6--6/7--6/7--6/7----|

|--7-7-7-7-7--7-7-7-7-7--4-4-4-4-4--4/5--4/5--4/5----|

|--5-5-5-5-5-----------------------------------------|

Both Guitars

Pero mahal kita wala ng hahanapin pang iba

|-------------------------------------------------|

|-------------------------------------------------|

|-------------9-9-9-9-9---6-6-6-6-6---7-7-7-7-7---|

|--7-7-7-7-7--9-9-9-9-9---6-6-6-6-6---7-7-7-7-7---|

|--7-7-7-7-7--7-7-7-7-7---4-4-4-4-4---5-5-5-5-5---|

|--5-5-5-5-5--------------------------------------|

Guitar 1

handa kong magtiis kahit na away,away,away na to...

|-------------------------------------------------|

|-------------------------------------------------|

|-------------9-9-9-9-9---6-6-6-6-6---7-7-7-7-7---|

|--7-7-7-7-7--9-9-9-9-9---6-6-6-6-6---7-7-7-7-7---|

|--7-7-7-7-7--7-7-7-7-7---4-4-4-4-4---5-5-5-5-5---|

|--5-5-5-5-5--------------------------------------|

Guitar 2

|----------------------------------------------------|

|----------------------------------------------------|

|-------------9-9-9-9-9--6-6-6-6-6--6/7--6/7--6/7----|

|--7-7-7-7-7--9-9-9-9-9--6-6-6-6-6--6/7--6/7--6/7----|

|--7-7-7-7-7--7-7-7-7-7--4-4-4-4-4--4/5--4/5--4/5----|

|--5-5-5-5-5-----------------------------------------|

Repeat Intro 1

Verse 2:

Guitar 1

Nahuli lang ng ilang minuto Di na kinibo

|--------------------------------------------------------------------|

|--------------------------------------------------------------------|

|--------------------------------7--7--7--7--7--7--9--9--9--9--9--9--|

|--7--7--7--7--7--7--7--7--7--7--7--7--7--7--7--7--9--9--9--9--9--9--|

|--7--7--7--7--7--7--7--7--7--7--5--5--5--5--5--5--7--7--7--7--7--7--|

|--5--5--5--5--5--5--5--5--5--5--------------------------------------|

. . . . . . . . . . . . . . . . . . .

Guitar 2

|--------------------------------------------------------|

|--------------------------------------------------------|

|----9-7-6h7---9-7-6h7---9-7-9-/11-9--14-14-13-14--------|

|------------7---------7---------------------------------|

|--------------------------------------------------------|

|--------------------------------------------------------|

Guitar 1

Natrapik lang sa kanto Di naman gwapo naisip mo agad nan chiks ako

|--------------------------------------------------------------------|

|--------------------------------------------------------------------|

|--------------------------------7--7--7--7--7--7--9-x-9-x-9-x-9-x---|

|--7--7--7--7--7--7--7--7--7--7--7--7--7--7--7--7--9-x-9-x-9-x-9-x---|

|--7--7--7--7--7--7--7--7--7--7--5--5--5--5--5--5--7-x-7-x-7-x-9-x---|

|--5--5--5--5--5--5--5--5--5--5--------------------------------------|

. . . . . . . . . . . . . .

Guitar 2

|-------------------------------------|

|-------------------------------------|

|----9-7-6h7---9-7-6h7---9-7-6h7------|

|------------7---------7---------7----|

|-------------------------------------|

|-------------------------------------|

Guitar 1

simple lang naman ang pinagmulan

|--------------------------------------------------------------------|

|--------------------------------------------------------------------|

|--------------------------------7--7--7--7--7--7--9--9--9--9--9--9--|

|--7--7--7--7--7--7--7--7--7--7--7--7--7--7--7--7--9--9--9--9--9--9--|

|--7--7--7--7--7--7--7--7--7--7--5--5--5--5--5--5--7--7--7--7--7--7--|

|--5--5--5--5--5--5--5--5--5--5--------------------------------------|

Guitar 2

|-----------------------------------------------------|

|-----------------------------------------------------|

|-14-14-14-14-14-/-13-13-13-13-13-/-11-11--/-9--9-----|

|-x--x--x--x--x----x--x--x--x--x----x--x---/-x--x-----|

|-12-12-12-12-12-/-11-11-11-11-11-/-9--9---/-7--7-----|

|-----------------------------------------------------|

Guitar 1

pinahaba ang usapan di naman kailangan mahabang away na naman

|--------------------------------------------------------------------|

|--------------------------------------------------------------------|

|--------------------------------7--7--7--7--7--7--9--9--9--9--9--9--|

|--7--7--7--7--7--7--7--7--7--7--7--7--7--7--7--7--9--9--9--9--9--9--|

|--7--7--7--7--7--7--7--7--7--7--5--5--5--5--5--5--7--7--7--7--7--7--|

|--5--5--5--5--5--5--5--5--5--5--------------------------------------|

Guitar 2

|-----------------------------------------------------|

|-----------------------------------------------------|

|-14-14-14-14-14-/-13-13-13-13-13-/-11-11--/-9--9-----|

|-x--x--x--x--x----x--x--x--x--x--/-x--x---/-x--x-----|

|-12-12-12-12-12-/-11-11-11-11-11-/-9--9---/-7--7-----|

|-----------------------------------------------------|

Guitar 1

|--------------------------------|

|--------------------------------|

|----------------------------7---|

|---4-4-4-4-----2-2-2-2------7---|

|---4-4-4-4-----2-2-2-2------5---|

|---2-2-2-2-----0-0-0-0----------|

Guitar 2

|-----------------------------------|

|-----------------------------------|

|---11-11-11-11-----9-9-9-9-----7---|

|---11-11-11-11-----9-9-9-9-----7---|

|---9--9--9--9------7-7-7-7-----5---|

|-----------------------------------|

Repeat Chorus

Adlib 1:

Sa part n 2 medyo tricky.. kc ung bass ang mggng pang rythm ung rythm

guit. ssby dun sa lead.. hehe try nyo nlng 2...

Guitar 1

|-------------------------------------------------------------------|

|-------------------------------------------------------------------|

|-------------------------------------------------------------------|

|--7-7-7-7-6-6-6-6---------7-7-6-6-----7-7-6-6-----7-7-6-6----------|

|------------------7-7-7-7---------7-7---------7-7---------7-7-7-7--|

|-------------------------------------------------------------------|

Guitar 2

|--------------------------------------------------------------------------|

|-10-10-10-10-9-9-9-9---------10-10-9-9-----10-10-9-9-----10-10-9-9--------|

|--------------------9-9-9-9-----------9-9-----------9-9-----------9-9-9-9-|

|--------------------------------------------------------------------------|

|--------------------------------------------------------------------------|

|--------------------------------------------------------------------------|

Guitar 1

|-------------------------------------------------------------------|

|-------------------------------------------------------------------|

|-------------------------------------------------------------------|

|--7-7-7-7-6-6-6-6---------7-7-6-6-----7-7-6-6-----x-7-x-7-x-7-x-7--|

|------------------7-7-7-7---------7-7---------7-7-x-7-x-7-x-7-x-7--|

|--------------------------------------------------x-5-x-5-x-5-x-5--|

Guitar 2

|--------------------------------------------------------------------------|

|-10-10-10-10-9-9-9-9---------10-10-9-9-----10-10-9-9----------------------|

|---------------------9-9-9-9-----------9-9-----------9-9------------------|

|---------------------------------------------------------x-7-x-7-x-7-x-7--|

|---------------------------------------------------------x-x-x-x-x-x-x-x--|

|---------------------------------------------------------x-5-x-5-x-5-x-5--|

Guitar 1

D ko lam if kung palm mute ung sa lead and kung may hammer and "p" n

ggmtn.. hehe bsta mabilis dun sa part na un

|-------------------------------------------|

|-------------------------------------------|

|-------------------------------------------|

|--7-7-7-7-9-9-9-9-11-11-11-11-14-14-14-14--|2x

|-------------------------------------------|

|-------------------------------------------|

|---------------------------------------------------------|

|---------------------------------------------------------|

|---------------------------------------------------------|

|--7-7-7-7-6-6-6-6-------7-7-6-6---7-7-6-6---7-7-6-6------|

|-----------------7-7-7-7-------7-7-------7-7-------7-7---|

|---------------------------------------------------------|

Guitar 2

|-------------------------------------------|

|--9-9-9--12-12-10-10-12-12-10-10-12-12-----|

|-------------------------------------------|

|-------------------------------------------|4x

|-------------------------------------------|

|-------------------------------------------|

Guitar 1

|-----------------------------------------------------------------------|

|-----------------------------------------------------------------------|

|--------------------------------------7-7-7-7-7-7-7-7-7-7-7-7-7-7-7-7--|

|--7-7-7-7-7-7-7-7---2-2-2-2-2-2-2-2---7-7-7-7-7-7-7-7-7-7-7-7-7-7-7-7--|

|--7-7-7-7-7-7-7-7---2-2-2-2-2-2-2-2---5-5-5-5-5-5-5-5-5-5-5-5-5-5-5-5--|

|--5-5-5-5-5-5-5-5---0-0-0-0-0-0-0-0------------------------------------|

Guitar 2

|-----------------------------------------------------------------------|

|--9h10-10-10-10-10-9-9-10-10-/14-12-12-12-10-10-9-9--------------------|

|-----------------------------------------------------------------------|

|-----------------------------------------------------------------------|

|-----------------------------------------------------------------------|

|-----------------------------------------------------------------------|

Guitar 1

|-------------------------------------------------|

|-------------------------------------------------|

|--------------------------------------7---6------|

|--7-7-7-7-7-7-7-7---2-2-2-2-2-2-2-2---7---6---7--|

|--7-7-7-7-7-7-7-7---2-2-2-2-2-2-2-2---5---4---7--|

|--5-5-5-5-5-5-5-5---0-0-0-0-0-0-0-0-----------5--|

Guitar 2

|-----------------------------------------------------------------------|

|--9h10--10--9--10--12--10--9--10--9--10--------------------------------|

|-----------------------------------------------------------------------|

|-----------------------------------------------------------------------|

|-----------------------------------------------------------------------|

|-----------------------------------------------------------------------|

Bridge:

Acoustic/ Guitar 1

Mas mgnda pag higher cords.. hehe

A E C#m D

Kahit na sabihin na naliligo ka sa sampal

Acoustic/ Guitar 1

A E C#m D

Di mo masasabi na hindi kita minamahal

Guitar 2

|-----------------------------------------------------------------------|

|-----------------------------------------------------------------------|

|--9h--7h--6h-7-7/9-7-6-7-7/9h------------------------------------------|

|-----------------------------------------------------------------------|

|-----------------------------------------------------------------------|

|-----------------------------------------------------------------------|

Guitar 1

Mahina lng ung strum sa part na 2...

Ang dami mong babae Wala ka pang trabaho Ngunit kahit ganun ay

nandito lang...

|-------------------------------------------------------------------------|

|-------------------------------------------------------------------------|

|--------------------9-9-9-9-9-9-9-9---6-6-6-6-6-6-6-6---7-7-7-7-7-7-7-7--|

|--7-7-7-7-7-7-7-7---9-9-9-9-9-9-9-9---6-6-6-6-6-6-6-6---7-7-7-7-7-7-7-7--|

|--7-7-7-7-7-7-7-7---7-7-7-7-7-7-7-7---4-4-4-4-4-4-4-4---5-5-5-5-5-5-5-5--|

|--5-5-5-5-5-5-5-5--------------------------------------------------------|

Guitar 2

|-----------------------------------------------------------------------|

|--10-9-10-10/12-10-9--10-9-10-10/12-10-9--10-9-10-10/12-10-9-5h--------|

|-----------------------------------------------------------------------|

|-----------------------------------------------------------------------|

|-----------------------------------------------------------------------|

|-----------------------------------------------------------------------|

Normal Strum na d2.. bsta diskarte nlng...

Guitar 1

Ako..... Nandito lang ako...

|------------------------------------------------------------------------|

|------------------------------------------------------------------------|

|-------------------9-9-9-9-9-9-9-9---6-6-6-6-6-6-6-6---7-7-7-7-7-7-7-7--|

|-7-7-7-7-7-7-7-7---9-9-9-9-9-9-9-9---6-6-6-6-6-6-6-6---7-7-7-7-7-7-7-7--|x2

|-7-7-7-7-7-7-7-7---7-7-7-7-7-7-7-7---4-4-4-4-4-4-4-4---5-5-5-5-5-5-5-5--|

|-5-5-5-5-5-5-5-5--------------------------------------------------------|

Guitar 2

ung may parenthesis ibig sbhin times kung ilang beses nyo kalabitin un.

inde 2 accurate.. kapa lng.. mukha nmn tama eh hehe .

|---------------------------------------------------------------------|

|-10-x(8x)--9-x(8x)--------12-x-12-x---------10-x(10x)----------------|

|-------------------9-x(4x)-------------------------------------------|

|---------------------------------------------------------------------|

|---------------------------------------------------------------------|

|---------------------------------------------------------------------|

|------------------------------------------------------------------------|

|-10-x(8x)--9-x(8x)--10-x(4x)---10p12p-x(2x)--12p14-x-14p9--10-x(8x)-----|

|------------------------------------------------------------------------|

|------------------------------------------------------------------------|

|------------------------------------------------------------------------|

|------------------------------------------------------------------------|

Do a pick slide pra dun sa prng slide na tunog hehe..

Adlib 2:

Both Guitars

|--------------------------------------------------------------------------|

|--------------------------------------------------------------------------|

|-6-6-6-4-4-4--------------------------------------------------------------|

|-6-6-6-4-4-4-6-6-6--7-7-7--6-6--7-7--6-6-6--7-7-7--9-9-9-7-x-7-7-x-7-x-7--|

|-4-4-4-2-2-2-6-6-6--7-7-7--6-6--7-7--6-6-6--7-7-7--9-9-9-7-x-7-7-x-7-x-7--|

|-------------4-4-4--5-5-5--4-4--5-5--4-4-4--5-5-5--7-7-7-7-x-7-5-x-5-x-5--|

|----------------------------------------------------------------------P--|

|----------------------------------------------------------------------A--|

|-6-6-6---4-4-4--------------------------------------------------------U--|

|-6-6-6---4-4-4---6-6-6----7-7-7---6-6----7-7---6-6-6---7-7-7---9-9-9--S--|

|-4-4-4---2-2-2---6-6-6----7-7-7---6-6----7-7---6-6-6---7-7-7---9-9-9--E--|

|-----------------4-4-4----5-5-5---4-4----5-5---4-4-4---5-5-5---7-7-7--!--|

Repeat Chorus

tapos after ng unang "away away away na 'to"

Guitar 1

|-------------------------------------------------------------------|

|-------------------------------------------------------------------|

|-------------------------------------------------------------------|

|--7-7-7-7-6-6-6-6---------7-7-6-6-----7-7-6-6-----7-7-6-6----------|

|------------------7-7-7-7---------7-7---------7-7---------7-7-7-7--|

|-------------------------------------------------------------------|

Guitar 2

|-----------------------------------------|

|-----------------------------------------|

|------------9-9-9-9---6-6-6-6---7-7-7-7--|

|--7-7-7-7---9-9-9-9---6-6-6-6---7-7-7-7--|

|--7-7-7-7---7-7-7-7---4-4-4-4---5-5-5-5--|

|--5-5-5-5--------------------------------|

Guitar 1

|-------------------------------------------------------------P--| |-----|

|-------------------------------------------------------------A--| |-----|

|-------------------------------------------------------------U--| |-----|

|--7-7-7-7-6-6-6-6-------7-7-6-6---7-7-6-6----7-7-6-6---------S--| |--7--|

|-----------------6-6-6-6-------6-6-------6-6--------7-7-7-7--E--| |--7--|

|-------------------------------------------------------------!--| |--5--|

Guitar 2

|-------------------------------------------------------P--| |-----|

|-------------------------------------------------------A--| |-----|

|------------9-9-9-9---6-6-6-6---6/7---6/7---6/7--------U--| |-----|

|--7-7-7-7---9-9-9-9---6-6-6-6---6/7---6/7---6/7-----7--S--| |--7--|

|--7-7-7-7---7-7-7-7---4-4-4-4---4/5---4/5---4/5-----7--E--| |--7--|

|--5-5-5-5-------------------------------------------5--!--| |--5--|

End

Slamat po sa mag rarate at comment ng tab ko.. patikim p lng po e2..

kei

lng po

kung merong masama.. well.. try ko nlng icorrect hehe

Credits:

sa mga future kabandmates ko.. huhu tagal ko nktambay d2..

Sa mga kalaro ko sa Password at skulm8 sa ABE Cabanatuan..

Sa mga Kabarkada q nung Highschool aq..

Sa mga Pinsan ko and kay Rendel Magno ( yan pabati p 2loy amf)

sa mga kboardmates ko sa Reniva sa lahat ng Room hehe..

para kay Jasta Dafne Luna at specially kay miss

Ellen Meriam Adarna inspiration

ko kayu hehe.. Tnx..!!

Get this song at:  amazon.com sheetmusicplus.com

Share your thoughts

0 Comments found