Kamikazee

Kamikazee - Martyr Nyebera (3) guitar tab

Title: Martyr Nyebera

Band: Kamikazee

Tabbed by: Kelvin

Intro:

Guitar 1 & 2

|----------------------------------------| R

|----------------------------------------| E

|--------7-6xxx-6/777-6/777-6/777-7/99---| P 2x

|-7-2xxx-7-6xxx-x-xxx-x-xxx-x-xxx-x-x----| E

|-7-2xxx-5-4xxx-4/555-4/555-4/555-5/77---| A

|-5-0xxx---------------------------------| T

Guitar 1

|--------------------------------------------------------|

|--------------------------------------------------------|

|--------------777777-999999--------------777777-999999--|

|-777777777777-777777-999999-777777777777-777777-999999--|

|-777777777777-555555-777777-777777777777-555555-777777--|

|-555555555555---------------555555555555----------------|

Guitar 2

|----------------------------------------|

|-2--3/5-3-2—3/5-3-2-3-2-3---------------|

|--2--------2-------------2-4-4/6-4-2-4--|

|----------------------------------------|

|----------------------------------------|

|----------------------------------------|

|------------------------------------------|

|-2--3/5-3-2—3/5-3-2-3-2-3-----------------|

|--2--------2-------------2-4-4/6-4-2-4-2--|

|------------------------------------------|

|------------------------------------------|

|------------------------------------------|

Verse:

Guitar 1 (palm mute)

Kinokompleto ko ang araw mo…

|-----------------------------| R

|-----------------------------| E

|-----------------------------| P 2x

|--------------777777-999999--| E

|-777777777777-555555-777777--| A

|-555555555555----------------| T

Guitar 2

|-----------------------------| R

|-----------------------------| E

|--------------7xxxxx-9xxxxx--| P 2x

|-7xxxxxxxxxxx-7xxxxx-9xxxxx--| E

|-7xxxxxxxxxxx-5xxxxx-7xxxxx--| A

|-5xxxxxxxxxxx----------------| T

Guitar 1 & 2

At pagsapit ng gabi…

|-----------------------------| R

|-----------------------------| E

|--------------777777-999999--| P 2x

|-777777777777-777777-999999--| E

|-777777777777-555555-777777--| A

|-555555555555----------------| T

Refrain:

guitar 1 & 2

haaahhh…

|-------------|

|-------------|

|---------7~--|

|-4~~-2~~-7~--|

|-4~~-2~~-5~--|

|-2~~-0~~-----|

Chorus:

Guitar 1 & 2

Ang almusal……

|----------------------------------|_________

|----------------------------------| |

|---------9999999-6666666-7777777--| |

|-7777777-9999999-6666666-7777777--| |

|-7777777-7777777-4444444-5555555--| |

|-5555555--------------------------| |

|--REPEAT

|----------------------------------| | 2x

|----------------------------------| |

|---------9999999-6666666-76766----| |

|-7777777-9999999-6666666-xxxxx----| |

|-7777777-7777777-4444444-54544----|_________|

|-5555555--------------------------|

Verse 2:

Guitar 1 (palm mute)

Nahuli lang ng ilang minuto…

|-----------------------------| R

|-----------------------------| E

|-----------------------------| P 2x

|--------------777777-999999--| E

|-777777777777-555555-777777--| A

|-555555555555----------------| T

Guitar 2

|-----------------------------------------------|

|-----------------------------------------------|

|-9-7-6h7---9-7-6h7---9-7-9-/11-9--14-14-13-14--|

|---------7---------7---------------------------|

|-----------------------------------------------|

|-----------------------------------------------|

|----------------------------------|

|----------------------------------|

|-9-7-6h7---9-7-6h7---9-7-6h7------|

|---------7---------7---------7----|

|----------------------------------|

|----------------------------------|

Guitar 1

|-----------------------------| R

|-----------------------------| E

|--------------777777-999999--| P 2x

|-777777777777-777777-999999--| E

|-777777777777-555555-777777--| A

|-555555555555----------------| T

Guitar 2

|----------------------------------------| R

|----------------------------------------| E

|-141414141414141414-13131313-1111-9999--| P 2x

|-xxxxxxxxxxxxxxxxxx-xxxxxxxx-xxxx-xxxx--| E

|-121212121212121212-11111111-9999-7777--| A

|----------------------------------------| T

Refrain:

Guitar 1 & 2

Haaahhh…

|-------------|

|-------------|

|---------7~--|

|-4~~-2~~-7~--|

|-4~~-2~~-5~--|

|-2~~-0~~-----|

Chorus: (Repeat chorus)

Adlib: (hindi ako sure dito, pero mejo malapit na rin)

Guitar 1

|--------------------------------------------------------

|--------------------------------------------------------

|--------------777777-99999--------------777777----------

|-777777777777-777777-99999-777777777777-777777-7x7x7x7--

|-777777777777-555555-77777-777777777777-555555-7x7x7x7--

|-555555555555--------------555555555555--------5x5x5x5--

|-66665555----6655--6655--6655------| R

|---------6666----66----66----6666--| E

|-----------------------------------| P 2x

|-----------------------------------| E

|-----------------------------------| A

|-----------------------------------| T

Guitar 1

|---------------------| R |---------------------------------|

|---------------------| E |---------------------------------|

|-2222-4444-6666-999--| P 2x |-22221111----2211--2211--2211----|

|---------------------| E |---------2222----22----22----22--|

|---------------------| A |---------------------------------|

|---------------------| T |---------------------------------|

Guitar 2

|-555-88-66-88-66-88--| R

|---------------------| E

|---------------------| P 4x

|---------------------| E

|---------------------| A

|---------------------| T

Guitar 1

|-----------------------------------------------------|

|-----------------------------------------------------|

|-----------------777777777777-----------------7-6----|

|-4444444-2222222-777777777777-4444444-2222222-7-6-7--|

|-4444444-2222222-555555555555-4444444-2222222-5-4-7--|

|-2222222-0000000--------------2222222-0000000-----5--|

Guitar 2

|-666666655556666/1010101088886666555666--|

|-----------------------------------------|

|-----------------------------------------|

|-----------------------------------------|

|-----------------------------------------|

|-----------------------------------------|

|-666555666/8886655----------|

|------------------11~10~11--|

|----------------------------|

|----------------------------|

|----------------------------|

|----------------------------|

Solo: (guitar 1-low vocals)

A-E-C#m-D

A-E-C#m-D

A-E-C#m-D

(guitar 2)

ang dami mong babae wala ka pang trabaho…

|--------------------------------------------------------------------|

|--10-9-10-10/13-10-9--10-9-10-10/13-10-9--10-9-10-10/13-10-9-5~-----|

|--------------------------------------------------------------------|

|--------------------------------------------------------------------|

|--------------------------------------------------------------------|

|--------------------------------------------------------------------|

Guitar 1:

Nandito lang ako……

A-E-C#m-D

Nandito lang ako…!!!!

(strumming ito)

|-----------|

|-----------|

|---9-6-7---|

|-7-9-6-7---|

|-7-7-4-5---|

|-5---------|

2nd Adlib:

Guitar 1 & 2

|-------------------------------------------------|

|-------------------------------------------------|

|-777-444-----------------------------------------|

|-777-444-777-666-77-66-666-777-999-777-88-77-88--|

|-555-222-777-666-77-66-666-777-999-777-88-77-88--|

|---------555-444-55-44-444-555-777-555-66-55-66--|

|-------------------------------------|

|-------------------------------------|

|-777-444-----------------------------|

|-777-444-777-666-77-66-666-777-999x--|

|-555-222-777-666-77-66-666-777-999x--|

|---------555-444-55-44-444-555-777x--|

Chorus: (repeat chorus)

Then…

Guitar 1 & 2

Away, away, away na to..

|---------------------------------P------|

|---------------------------------A------|

|---------9999999-6666666-7777777-U------|

|-7777777-9999999-6666666-7777777-S-7~---|

|-7777777-7777777-4444444-5555555-E-7~---|

|-5555555---------------------------5~---|

Handa nab a kayong mga pirata!

(opo kapitan!)

hindi ko kayo marinig!

(opo kapitan!)

ohhrr!!

-end-

Super tagal pa lang magtabb!

First time eh!

Pero astig talaga ang kantang ito!

Kahit mahirap, let’s rock!

Kamikazee, KEEP ROCKIN’

**********************

hi to all my kapit bahay na nagpapaturo sa akin maggitara!

Sa classmate ko, ingat lagi kayo.

Sa mga kabarkada ko!

Tol, galing nyo!

Hehehe

Get this song at:  amazon.com sheetmusicplus.com

Share your thoughts

0 Comments found