Kamikazee

Kamikazee - Maharot Bass guitar tab

-------------------------------------------------------------------------------

MAHAROT - Kamikazee

-------------------------------------------------------------------------------

Tabbed By : gio agudo

e-mail: webmaster at tabs-database.com.com

Tuning: Standard

1. Director's Cut

Intro:

G|-----------------------------|

D|-----------------------------| 4x

A|------7--6-4-2-000000-222222-|

E|-0-0-------------------------|

. .

Verse 1:

G|----------------------------- -----|

D|----------------------------- 2x -----|

A|-777777---------------------- -----|

E|---------99-77--55555-77777-- -0~--|

G|-------------------------------|

D|-------------------------------| 2x

A|------7--6-4-2-000000-222222---|

E|-0-0---------------------------|

Verse 2:

G|----------------------------- -----|

D|----------------------------- 2x -----|

A|-777777---------------------- -----|

E|---------99-77--55555-77777-- -0~--|

Pre-Chorus 1:

G|------------------------------------------|

D|------------------------------------------|

A|-4444444--------------44444444------------|

E|---------55-55-55-55-----------55-5-5-5-5-|

.. .. .. .. .. . . . .

Pre-Chorus 2:

G|------------------------------------|

D|------------------------------------|

A|-4444444--------------44444444--2~--|

E|---------55-55-55-55----------------|

.. .. .. ..

Chorus:

G|----------------------------|

D|----------------------------|

A|-777777---------------------|

E|--------555555-999999-77777-|

G|----------------------------------------------------------------|

D|----------------------------------------------------------------|

A|-7777-9999-111111-14141414--12121212-11111111-12121212-14141414-|

E|----------------------------------------------------------------|

G|------------------------------------------------|

D|------------------------------------------------|

A|-----------4444-7777--2222-4444-6666-99-66--7~--|

E|-5555-4444--------------------------------------|

Bridge:

G|-------------------------------------------------------------------------|

D|-------------------------------------------------------------------------|

A|--------7-7-777777----------------------777777-----------------------7~--|

E|-2/12\\1------------555555-999999-77777---------555555--999999-777777-----|

. .

Pre-Chorus 2:

G|------------------------------------|

D|------------------------------------|

A|-4444444--------------44444444--2~--|

E|---------55-55-55-55----------------|

.. .. .. ..

Chorus:

G|----------------------------|

D|----------------------------|

A|-777777---------------------|

E|--------555555-999999-77777-|

G|----------------------------------------------------------------|

D|----------------------------------------------------------------|

A|-7777-9999-111111-14141414--12121212-11111111-12121212-14141414-|

E|----------------------------------------------------------------|

G|------------------------------------------------|

D|------------------------------------------------|

A|-----------4444-7777--2222-4444-6666-99-66--7~--|

E|-5555-4444--------------------------------------|

Outro:

G|----------------------------------------------------------------|

D|----------------------------------------------------------------|

A|-7777-9999-111111-14141414--12121212-11111111-12121212-14141414-|

E|----------------------------------------------------------------|

G|---------------------------------------------------|

D|---------------------------------------------------|

A|-----------4444-7777--2222-4444-6666-99-66--777777-|

E|-5555-4444-----------------------------------------|

2. Seksi! Seksi!

Intro:

G|----------------------------------------------------------|

D|----------------------------------------------------------|

A|----------------------------------------------3333-0-4444-|

E|-33-4-5--33-4-5--33-4-5-33-4-5--33-4-5-33-4-5-------------|

G|---------------------------- -------------------|

D|---------------------------- 3x -------------------|

A|------------5-3-5-4--2------ --------444--------|

E|-0-3-4-4/5-------------3333- -00-33------0-3333-|

Verse 1:

G|-----------------------------------------------|

D|-----------------------------------------------|

A|--------54------------------------54-----------|

E|-33-4-5---54--3-3-4-5------33-4-5---54--33-4-5-|

Pre-Chorus:

G|---------------------------|

D|---------------------------|

A|-----------------333-0-444-|

E|-33-4-5--33-4-5------------|

Chorus:

G|---------------------------- -------------------|

D|---------------------------- 3x -------------------|

A|------------5-3-5-4--2------ --------444--------|

E|-0-3-4-4/5-------------3333- -00-33------0-3333-|

Verse 2:

G|-----------------------------------------------|

D|-----------------------------------------------|

A|--------54------------------------54-----------|

E|-33-4-5---54--3-3-4-5------33-4-5---54--33-4-5-|

Pre-Chorus:

G|---------------------------|

D|---------------------------|

A|-----------------333-0-444-|

E|-33-4-5--33-4-5------------|

Bridge:

G|------------------- --------------------------|

D|------------------- 3x --------------------------|

A|---------------3/7- -----------------33-5-----|

E|-5--3-2-3-2--3----- -555-333-222-333------5~--|

G|-------------------------------------------|

D|-------------------------------------------| x2 or 3

A|-------------------------------------------| Fast part

E|-55555-33333-22222-55555-33333-22222-55555-|

Verse 3:

G|-----------------------------------------------|

D|-----------------------------------------------|

A|--------54------------------------54-----------|

E|-33-4-5---54--3-3-4-5------33-4-5---54--33-4-5-|

G|---------------------------|

D|---------------------------|

A|-----------------333-0-444-|

E|-33-4-5--33-4-5------------|

Chorus:

G|---------------------------- -------------------|

D|---------------------------- 3x -------------------|

A|------------5-3-5-4--2------ --------444--------|

E|-0-3-4-4/5-------------3333- -00-33------0-3333-|

Outro:

G|------------------- --------------------------|

D|------------------- 3x --------------------------|

A|---------------3/7- -----------------33-5-----|

E|-5--3-2-3-2--3----- -555-333-222-333------5~--|

3. Martyr Nyebera

Intro:

G|-------------------------------------|

D|-------------------------------------| 2x

A|-------5-4---4/555--4/555-4/555-7777-|

E|--5-0--------------------------------|

. . . .

G|--------------------|

D|--------------------| 2x

A|--------55555-77777-|

E|--55555-------------|

Verse 1:

G|------------- ----------|

D|------------- 2x ------7-6-|

A|----77-55-44- ----7-----|

E|-55---------- -55-------|

G|------------- -------------------|

D|------------- 2x -------------------|

A|----77-55-44- ----77-55-44-7-7-7-|

E|-55---------- -55----------------|

. . .

G|--------------------|

D|--------------------| 2x

A|--------55555-77777-|

E|--55555-------------|

G|--------------|

D|--------------|

A|----------5~--|

E|--2~--0~------|

Chorus:

G|------------------------------------------------------|

D|------------------------------------------------------| 2x

A|-------7777-4444-5555-------7777-4444-5-4-5-4-5-4-5---|

E|--5555-----------------5555-------------------------5-|

G|-------------------------------------|

D|-------------------------------------| 2x

A|-------5-4---4/555--4/555-4/555-7777-|

E|--5-0--------------------------------|

. . . .

Verse 1:

G|------------- ----------|

D|------------- 2x ------7-6-|

A|----77-55-44- ----7-----|

E|-55---------- -55-------|

G|------------- -------------------|

D|------------- 2x -------------------|

A|----77-55-44- ----77-55-44-7-7-7-|

E|-55---------- -55----------------|

. . .

G|--------------------|

D|--------------------| 2x

A|--------55555-77777-|

E|--55555-------------|

G|--------------|

D|--------------|

A|----------5~--|

E|--2~--0~------|

Chorus:

G|------------------------------------------------------|

D|------------------------------------------------------| 2x

A|-------7777-4444-5555-------7777-4444-5-4-5-4-5-4-5---|

E|--5555-----------------5555-------------------------5-|

Bridge:

G|--------------------------------------|

D|--------------------------------------|

A|-------55555-77777--------55555-7-7-7-|

E|-55555--------------55555-------------|

. . .

G|-------------------------------------------|

D|-------------------------------------------|

A|--------55555-77777--------55555--77-55-44-|

E|--55555--------------55555-----------------|

G|-------------------------------------|

D|-------------------------------------|

A|------------5555-------------5-4-----|

E|--2222-0000-------2222--0000-----5~--|

Kahit na sabihin...

Bass enters w/ gtr fill in:

G|------------------------------|

D|------------------------------|

A|------------7777--44444-55555-|

E|--12\\2-5555-------------------|

End of bridge:

G|----------------------------------------|

D|----------------------------------------|

A|-444-222------000----00-----00--222-----|

E|----------444-----44----444---------0~--|

G|----------------------------------|

D|----------------------------------|

A|-444-222--------------------------|

E|----------444-55-44-55-444-555-77-|

Chorus:

G|------------------------------------------------------|

D|------------------------------------------------------| 2x

A|-------7777-4444-5555-------7777-4444-5-4-5-4-5-4-5---|

E|--5555-----------------5555-------------------------5-|

Outro:

G|--------------------------------- -----|

D|--------------------------------- 2x -----|

A|-------7777-4444-5-4-5-4-5-4-5--- -----|

E|--5555-------------------------5- -5~--|

4. Narda

Intro:

G|-------------------------------------------------------------|

D|--0--0--0--0--0----------------------------------------------| 2x

A|-------------------2--2--2--2--2-----------------------------|

E|------------------------------------3--3--3--3--3--5--5--5~--|

G|-----------------------------------------------|

D|-----------------------------------------------|

A|-555555555-5222222222-2------------------------|

E|------------------------33333333-3555577779999-|

G|---------------------------------------------|

D|---------------------------------------------|

A|-555555555-5222222222-2----------------------|

E|------------------------333333333-3555555555-|

Verse 1:

G|-------------------------------------------------------------|

D|--0--0--0--0--0----------------------------------------------| 2x

A|-------------------2--2--2--2--2-----------------------------|

E|------------------------------------3--3--3--3--3--5--5--5~--|

Pre-Chorus & Chorus:

G|-------------------------------------------|

D|-------------------------------------------| 2x

A|-555555555-5222222222----------------------|

E|----------------------333333333-3555555555-|

Verse 2:

G|-------------------------------------------------------------|

D|--0--0--0--0--0----------------------------------------------| 2x

A|-------------------2--2--2--2--2-----------------------------|

E|------------------------------------3--3--3--3--3--5--5--5~--|

Pre-Chorus & Chorus :

G|-------------------------------------------|

D|-------------------------------------------| 2x

A|-555555555-5222222222----------------------|

E|----------------------333333333-3555555555-|

Adlib :

G|-------------------------------------------------------------|

D|--0--0--0--0--0----------------------------------------------| 2x

A|-------------------2--2--2--2--2-----------------------------|

E|------------------------------------3--3--3--3--3--5--5--5~--|

Verse 3:

G|-------------------------------------------|

D|-------------------------------------------| 2x

A|-555555555-5222222222----------------------|

E|----------------------333333333-3555555555-|

Pre-Chorus & Chorus:

G|-------------------------------------------|

D|-------------------------------------------| 2x

A|-555555555-5222222222----------------------|

E|----------------------333333333-3555555555-|

Outro:

G|-----------------------------------------------|

D|-----------------------------------------------| 2x

A|-555555555-5222222222----------------------5~--|

E|----------------------333333333-3555555555-----|

5. Chiksilog

Intro:

G|---------------------------------------------|

D|---------------------------------------------|

A|-7777-------4-444-------7777-----------------|

E|------5-555-------7-777------5-555--7-777777-|

G|------------------------------------|

D|------------------------------------|

A|-7777-------------------------------|

E|------5-555-7-----7-----7--7--7--7--|

Verse 1:

G|----------------------------------|

D|----------------------------------| 2x

A|-777----444--------777----444-----|

E|-------------55----------------55-|

G|---------------------------------------------|

D|---------------------------------------------| 2x

A|-7777-------4-444-------7777-----------------|

E|------5-555-------7-777------5-555--7-777777-|

Verse 2:

G|----------------------------------|

D|----------------------------------| 2x

A|-777----444--------777----444-----|

E|-------------55----------------55-|

Refrain:

G|---------------------------------|

D|---------------------------------|

A|-----------------4-44444---------|

E|-5-55555-7-77777---------7-77777-|

G|----------------------|

D|----------------------|

A|----------------------|

E|-5-5555-9999-77777777-|

Chorus:

G|-------------------------------------------|

D|-------------------------------------------| 2x

A|-7777------4-444-------7777----------------|

E|-----5-555-------7-777------5-555-7-777777-|

Bridge:

G|-----------------------------------------------------|

D|-----------------------------------------------------| 2x

A|-7-7777777777-4-4444444444-2-2222222222--------------|

E|----------------------------------------5-5555555555-|

G|-----------------------------------|

D|-----------------------------------| 2x

A|-----------------------------------|

E|-5-5555-7-7777(hold)-5555-5-7-7777-|

G|----------------------------------------------------------------|

D|----------------------------------------------------------------|

A|--------444-777---------444-------------444-777-----------------|

E|-777-555--------777-555-----444-777-555----------55--77--55--77-|

Verse 3:

G|----------------------------------|

D|----------------------------------| 2x

A|-777----444--------777----444-----|

E|-------------55----------------55-|

Refrain:

G|---------------------------------|

D|---------------------------------|

A|-----------------4-44444---------|

E|-5-55555-7-77777---------7-77777-|

G|----------------------|

D|----------------------|

A|----------------------|

E|-5-5555-9999-77777777-|

Chorus:

G|------------------------------------------- ------|

D|------------------------------------------- 2x ------|

A|-7777------4-444-------7777---------------- ------|

E|-----5-555-------7-777------5-555-7-777777- --5~--|

6. Sobrang Init

Intro:

G|---------------------------------------------------|

D|---------------------------------------------------| 2x

A|-5-4-------5-4-------5-4-------5-4-------5-4-------|

E|-----33333-----33333-----33333-----33333-----33333-|

Verse 1:

G|---------------------------------------------------|

D|---------------------------------------------------| 5x

A|-5-4-------5-4-------5-4-------5-4-------5-4-------|

E|-----33333-----33333-----33333-----33333-----33333-|

Chorus:

G|------------------------------- ---------------------------------|

D|------------------------------- 4x ---------------------------------|

A|-3-5-6-3-6-5-3-5-3-5-3-6-5-3-5- ---------------------------------|

E|------------------------------- -3-3-3-3-3-3-3-3-3-3-3-3-3-3-3-3-|

G|---------------------------------------------------|

D|---------------------------------------------------| 2x

A|-5-4-------5-4-------5-4-------5-4-------5-4-------|

E|-----33333-----33333-----33333-----33333-----33333-|

Verse 2:

G|----------------------------------------------------------------------------------------------|

D|----------------------------------------------------------------------------------------------|

A|-5-4-------5-4-------5-4-------5-4-------5-4-------5-4--5-4--5-4--5-4--5-4--5-4--5-4------3-5-|

E|-----33333-----33333-----33333-----33333-----33333-----3----3---3----3----3----3----3-5-5-----|

Chorus:

G|-------------------------------|

D|-------------------------------| 4x

A|-3-5-6-3-6-5-3-5-3-5-3-6-5-3-5-|

E|-------------------------------|

Bridge: (* - repeat many times, listen to the song for timing)

G|------------------------------------------------------------------------|

D|------------------------------------------------------------------------|

A|------------------5-3--5-3*--3-3*--3-5-5-5-5*---3-5-7-9(4x)-3-5-7-9-10*-|

E|-3--------3----3-3----3-------5-5------3-3-3-3--------------------------|

Chorus:

G|------------------------------- ----------------- --|

D|------------------------------- 8x ----------------- 3x --|

A|-3-5-6-3-6-5-3-5-3-5-3-6-5-3-5- ----------------- --|

E|------------------------------- -3-5-6-3-6-5-3-5- --|

G|--------------------------------|

D|--------------------------------|

A|--------------------------------|

E|-3-3-3-3-3-3-3-3-3-3-3-33333333-|

repeat many times, listen to the song for timing

G|---------------------------------------------------|

D|---------------------------------------------------|

A|-5-4-------5-4-------5-4-------5-4-------5-4-------|

E|-----33333-----33333-----33333-----33333-----33333-|

G|---------------------------------------------|

D|---------------------------------------------|

A|-5-4-------5-4-------5-4-------5-4-----------|

E|-----3-3-3-----3-3-3-----3-3-3-----3-3-3-0-3-|

7. A.I.D.S.

Intro:

G|--------------------|

D|--------------------|

A|-4-4-4-4-4-4-4--0---|

E|------------------5-|

. . . . . . .

G|-------------------------------------------|

D|-------------------------------------------| 8x

A|-4-4-4-4-4-4-4--77777----------------------|

E|----------------------5-5-5-5-5-5-5--77777-|

. . . . . . . . . . . . . .

Verse 1:

G|-------------------------------------------|

D|-------------------------------------------| 8x

A|-4-4-4-4-4-4-4--77777----------------------|

E|----------------------5-5-5-5-5-5-5--77777-|

. . . . . . . . . . . . . .

Pre-Chorus:

G|----------------------------------------|

D|----------------------------------------|

A|-777777--------444444--------4-4-4-4----|

E|--------555555--------555555----------5-|

. . . .

Verse 2:

G|-------------------------------------------|

D|-------------------------------------------| 8x

A|-4-4-4-4-4-4-4--77777----------------------|

E|----------------------5-5-5-5-5-5-5--77777-|

. . . . . . . . . . . . . .

Pre-Chorus:

G|----------------------------------------|

D|----------------------------------------|

A|-777777--------444444--------4-4-4-4----|

E|--------555555--------555555----------5-|

. . . .

Chorus:

G|----------------------------- -----|

D|----------------------------- 2x -----|

A|-777777--------444444-------- -7~--|

E|--------555555--------555555- -----|

Bridge:

G|---------------------------|

D|---------------------------| 2x

A|-77~-----------44~---------|

E|--------55~-----------55~--|

G|------------------------------------------------------------|

D|------------------------------------------------------------|

A|-4-4-4-4-4-4-4--77777------------------4-4-4-4-4--77777-----|

E|----------------------5-5-5-5-5--77777------------------5~--|

. . . . . . . . . . . . . . . . .

Chorus:

G|----------------------------- -----|

D|----------------------------- 2x -----|

A|-777777--------444444-------- -7~--|

E|--------555555--------555555- -----|

8. Shoot Dat Bol

Intro:

G|-------------------------|

D|-------------------------|

A|-------------------------|

E|----55----55----55----55-|

G|-------------|

D|-------------| 5x

A|-333-222-----|

E|---------555-|

Chorus:

G|-------------|

D|-------------| 5x

A|-333-222-----|

E|---------555-|

Verse 1:

G|--------------------------------------------------|

D|--------------------------------------------------|

A|--3-5---3-5---3-5---3-5---3-5---3-5---3-5---3-5---|

E|------1-----1-----1-----1-----1-----1-----1-----1-|

G|-------------------------------------------------|

D|-------------------------------------------------|

A|-------------------------------------------------|

E|-33335-33335-33335-33335-33335-33335-33335-33335-|

Verse 2:

G|--------------------------------------------------|

D|--------------------------------------------------|

A|--3-5---3-5---3-5---3-5---3-5---3-5---3-5---3-5---|

E|------1-----1-----1-----1-----1-----1-----1-----1-|

G|-------------------------------------------------|

D|-------------------------------------------------|

A|-------------------------------------------------|

E|-33335-33335-33335-33335-33335-33335-33335-33335-|

Chorus:

G|-------------|

D|-------------| 4x

A|-333-222-----|

E|---------555-|

Bridge:

G|---------------------------------|

D|---------------------------------| 2x

A|---------------------------------|

E|-3333555-3333555-3333555-3333555-|

Verse 3:

G|------------------------------------------------------------------|

D|------------------------------------------------------------------|

A|------------------------------------------------------------------|

E|-332-332-332-332-332-332-332-332--223-223-223-223-223-223-223-223-|

Chorus:

G|-------------|

D|-------------| 4x

A|-333-222-----|

E|---------555-|

Outro:

G|-------------|

D|-------------| 4x

A|-333-222-----|

E|---------555-|

9. Ambisyoso

Intro:

G|-1111111111--141414--1212121212--141414--1111111111--141414--1212121212~--|

D|-1212121212--121212--1212121212--121212--1212121212--121212--1212121212~--|

A|--------------------------------------------------------------------------|

E|--------------------------------------------------------------------------|

G|----------------------------------------------------------------------------|

D|---4-2-4-2-0-----------------------------4-2-4-2-0--------------------------|

A|-5------------4-5-5/7-5-4-0------------5------------5-4-5-7-5-0-------------|

E|----------------------------2222-3333---------------------------2222-3333---|

Verse 1:

G|----------------------------------------------------------------------------|

D|---4-2-4-2-0-----------------------------4-2-4-2-0--------------------------|

A|-5------------4-5-5/7-5-4-0------------5------------5-4-5-7-5-0-------------|

E|----------------------------2222-3333---------------------------2222-3333---|

G|-------------------------------------------------|

D|-------------------------------------------------|

A|-555555555555-------------555555555555-----------|

E|--------------22222-33333--------------22222-3~--|

Chorus:

G|----------------------------------------------|

D|----------------------------------------------|

A|-555555555555-------------555555555555--------|

E|--------------22222-33333--------------232355-|

Verse 2:

G|----------------------------------------------------------------------------|

D|---4-2-4-2-0-----------------------------4-2-4-2-0--------------------------|

A|-5------------4-5-5/7-5-4-0------------5------------5-4-5-7-5-0-------------|

E|----------------------------2222-3333---------------------------2222-3333---|

G|-------------------------------------------------|

D|-------------------------------------------------|

A|-555555555555-------------555555555555-----------|

E|--------------22222-33333--------------22222-3~--|

Chorus:

G|----------------------------------------------|

D|----------------------------------------------|

A|-555555555555-------------555555555555--------|

E|--------------22222-33333--------------232355-|

Bridge:

G|----------------------------------|

D|----------------------------------| 4x then hold

A|----------------------------------|

E|-555555555-333333333-777777777777-|

G|-------------------------------------------------------------|

D|-------------------------------------------------------------|

A|-------------------------------------------------------------|

E|-(gtr)-22222-33333-(gtr)-22222-33333-(gtr)-22222-33333(hold)-|

G|-----------------------------------------------|

D|-----------------------------------------------|

A|-----------------------------------------------|

E|-(gtr)-223232(hold)-223232(hold)-2232322555555-|

Chorus:

G|--------------------------|

D|--------------------------| 3x

A|-555555555555-------------|

E|--------------22222-33333-|

Outro:

G|-----------------------|

D|-----------------------|

A|-555555555555----------|

E|--------------2222-3~--|

10. Discokwela

Intro:

G|----------------------1/2\\1/2\\1-- -------------|

D|------1/2\\1/2\\1------------------ 2x -------------|

A|-222-------------222------------- -55555-77777-|

E|--------------------------------- -------------|

G|-------------------------------------------------------------------|

D|-------------------------------------------------------------------|

A|-22-1-2--5555-7777--22-1-2--22-1-2--22-1-2--5555-7777--22-1-2------|

E|---------------------------------------------------------------2~--|

Verse 1:

G|-------------------------------------- ------|

D|-------------------------------------- 4x ------|

A|-1-2-1-2--1-2-1-2--1-2-1-2--5555-7777- -9999-|

E|-------------------------------------- ------|

Chorus:

G|-------------------------------------------------------------------|

D|-------------------------------------------------------------------|

A|-22-1-2--5555-7777--22-1-2--22-1-2--22-1-2--5555-7777--22-1-2------|

E|---------------------------------------------------------------2~--|

Verse 2:

G|-------------------------------------- ------|

D|-------------------------------------- 4x ------|

A|-1-2-1-2--1-2-1-2--1-2-1-2--5555-7777- -9999-|

E|-------------------------------------- ------|

Chorus:

G|-------------------------------------------------------------------|

D|-------------------------------------------------------------------|

A|-22-1-2--5555-7777--22-1-2--22-1-2--22-1-2--5555-7777--22-1-2------|

E|---------------------------------------------------------------2~--|

Bridge:

G|------------------------------------------------------------------------|

D|------------------------------------------------------------------------|

A|------------------------------------------------------------------------|

E|-335--335--335--335----33553--33553--33553--33553--33553--33553--33553--|

G|--------------------------------------|

D|--------------------------------------| 5x

A|-------------------------------555555-|

E|-55555--33333-22222--55555-88888------|

G|----------------------1/2\\1/2\\1-- -------------|

D|------1/2\\1/2\\1------------------ 2x -------------|

A|-222-------------222------------- -55555-77777-|

E|--------------------------------- -------------|

Chorus:

G|-----------------------------------------------------------------------------|

D|-----------------------------------------------------------------------------|

A|-22-1-2--5555-7777--22-1-2--22-1-2--22-1-2--5555-7777--22-1-2----------------|

E|---------------------------------------------------------------2~----2-1-2~--|

11. Petix

Intro:

G|-------------------------------|

D|-------------------------------| 4x

A|----5-5-33-2h32----5-5-33-5h75-|

E|-33--3----------33--3----------|

Verse 1:

G|---------------------------------------------------------|

D|-------5---------754--------------5----------------------| 2x

A|-----57-757-----7---55/7\\55------57-757-----55h75-0h20h2-|

E|-33---------33--------------33---------33----------------|

G|-------------------------------|

D|-------------------------------| 2x

A|----5-5-33-2h32----5-5-33-5h75-|

E|-33--3----------33--3----------|

Verse 2:

G|-----------------------------------------------------------------------------------------------|

D|-------5---------754--------------5---------------------5---------754--------------5-----------|

A|-----57-757-----7---55/7\\5------57-757--------333-----57-757----7----55/7\\5------57-757-0h20h2-|

E|-33---------33--------------33---------3(HOLD)-----33--------33--------------33----------------|

Chorus:

G|------------------------------- -------------------|

D|------------------------------- 8x --------------2255-|

A|----5-5-33-2h32----5-5-33-5h75- -----2255-3355-----|

E|-33--3----------33--3---------- -3355--------------|

Bridge:

G|---------------------------------------------------------------------|

D|---------------------------------------------------------------------| 2x

A|----2---3-5h75h75----2---3-5-7-10-----2---3-5h75h75----2---3-5h75----|

E|-3-5--5-----------3-5--5-----------3-5--5-----------3-5--5-------573-|

Chorus:

G|-------------------------------|

D|-------------------------------| 6x

A|----5-5-33-2h32----5-5-33-5h75-|

E|-33--3----------33--3----------|

12. My Tender Bear

Intro:

G|------------------------------------|

D|------------------------------------| 4x

A|----------44\\22/4--55\\44/5--77-55-4-|

E|-55\\44/5----------------------------|

Verse 1:

G|------------------------------------|

D|---------------------------4-5-4--0-|

A|---4-5-4--------4-5-4---------------|

E|-5-------5-7--2-------5-7-----------|

Chorus:

G|------------------------------------|

D|------------------------------------| 2x

A|----------44\\22/4--55\\44/5--77-55-4-|

E|-55\\44/5----------------------------|

Verse 2:

G|------------------------------------|

D|---------------------------4-5-4--0-|

A|---4-5-4--------4-5-4---------------|

E|-5-------5-7--2-------5-7-----------|

Chorus:

G|------------------------------------|

D|------------------------------------| 2x

A|----------44\\22/4--55\\44/5--77-55-4-|

E|-55\\44/5----------------------------|

G|------------------------------------|

D|------------------------------------|

A|----------44\\22/4--55\\44/5--77-55-4-|

E|-55\\44/5----------------------------|

Bridge:

G|------H---------H-------------------------------------------------------------------|

D|------O---------O-------------------------------------------------------------------|

A|------L-----55--L------------55---------------55---------------55------------55-----|

E|-5555-D-2222----D-5555-D-2222----0005555000222---00055550002222-----555000222---000-|

G|-------------------------|

D|-------------------------|

A|--------------------2222-|

E|-0000--2222--44444-------|

Solo:

G|-------------------------------------------------------------------------|

D|-------------------------------------------------------------------------|

A|----4-4-5-5/7-5-4-5-----4-4-5-7-9-7-----4-4-5-5/7-5-4-5--1010-9-7-99-7-9-|

E|-5b------------------5b--------------5b----------------------------------|

Continued...

G|-----------------------------------------------------------------------------------------|

D|-----------------------------------------------------------------------------------------|

A|-----4-4-5-5/7-5-4-5-----4-4-5-7-9-7---1010-9-7-99-7-9-----4-5-7-5-4-5-----4-4-5-5/7-4-5-|

E|-5b-------------------5b---------------------------------5--------------5b---------------|

G|---------------------------------------------|

D|---------------------------------------------| Repeat many times

A|---------------------------------------------|

E|-4h5-4h5-4h5-4h5-4h5-4h5-4h5-4h5-4h5-4h5-4h5-|

Verse 3:

G|------------------------------------|

D|---------------------------4-5-4--0-|

A|---4-5-4--------4-5-4---------------|

E|-5-------5-7--2-------5-7-----------|

G|-------------|

D|-------------|

A|-------5-7-5-|

E|-5--2--------|

G|------------------------------------------|

D|------------------------------------------|

A|-----------------5-5-5-5--777777777777777-|

E|-555-555--222-222-------------------------|

Outro:

G|------H---------H-------------------------------------------------------------------|

D|------O---------O-------------------------------------------------------------------|

A|------L-----55--L------------55---------------55---------------55------------55-----|

E|-5555-D-2222----D-5555-D-2222----0005555000222---00055550002222-----555000222---000-|

13. Apir Day

Intro:

G|-6666666-7777777-9999999-101010/121212-|

D|---------------------------------------|

A|---------------------------------------|

E|---------------------------------------|

G|-6666666-7777777-9999999-101010/121212-|

D|---------------------------------------|

A|---------------------------------------|

E|---------------------------------------|

G|---------------|

D|--9-7-6-7-6----|

A|-------------7-|

E|---------------|

Verse 1:

G|-66--77--99--77---66--77--9999--101010-|

D|---------------------------------------|

A|---------------------------------------|

E|---------------------------------------|

Chorus:

G|-6666666-7777777-9999999-101010/121212-|

D|---------------------------------------|

A|---------------------------------------|

E|---------------------------------------|

Verse 2:

G|-66--77--99--77---66--77--9999--101010-|

D|---------------------------------------|

A|---------------------------------------|

E|---------------------------------------|

Chorus:

G|-6666666-7777777-9999999-101010/121212-|

D|---------------------------------------|

A|---------------------------------------|

E|---------------------------------------|

G|-6666666-7777777-9999999-101010/121212-|

D|---------------------------------------|

A|---------------------------------------|

E|---------------------------------------|

Bridge:

G|-6-6-6-6-6-6-6-6----------------|

D|--------------------9-7-6-7-6---|

A|------------------------------7-|

E|--------------------------------|

G|-66--77--99--1010----|

D|---------------------|

A|---------------------|

E|---------------------|

G|-66--77--99--1010----|

D|---------------------| 2x

A|---------------------|

E|---------------------|

G|-66--77--99--1010----|

D|---------------------|

A|---------------------|

E|---------------------|

G|-6666666-7777777-9999999-101010/121212-|

D|---------------------------------------|

A|---------------------------------------|

E|---------------------------------------|

Outro:

G|-6666666-7777777-9999999-101010/121212-|

D|---------------------------------------|

A|---------------------------------------|

E|---------------------------------------|

14. K.K.K.

Intro:

G|---------|

D|---------|

A|-0--0--0-|

E|---------|

G|-----------------------|

D|-----------------------| 4x

A|-555555555555----------|

E|---------------444-333-|

Verse 1:

G|------------------------------------------------------------|

D|------------------------------------------------------------|

A|-----------------------------------0-2-4---------00-0--00-0-|

E|-0-1-3-0-1-0---0-1-3-0-1-0---0-1-3--------------------------|

G|--------------------------------------------------------------|

D|---------------------------------------0-3-4-3----------------|

A|---------------------------------0-2-4---------00-8\\2--00-8\\2-|

E|-0-1-3-0-1-0--0-1-3-0-1-0--0-1-3------------------------------|

G|-------------------------------------------------------------|

D|-----------------------------------------0-3-4-3--22-2--22-2-|

A|-----------------------------------0-2-4----------00-0--00-0-|

E|-0-1-3-0-1-0---0-1-3-0-1-0---0-1-3---------------------------|

Pre-Chorus:

G|-------------- 7x ---------|

D|-------------- -0--0--0-|

A|-------------- ---------|

E|-2-1-0-2-4-2-- ---------|

Chrous:

G|-----------------------|

D|-----------------------| 4x

A|-555555555555----------|

E|---------------444-333-|

Verse 1:

G|------------------------------------------------------------|

D|------------------------------------------------------------|

A|-----------------------------------0-2-4---------00-0--00-0-|

E|-0-1-3-0-1-0---0-1-3-0-1-0---0-1-3--------------------------|

G|--------------------------------------------------------------|

D|---------------------------------------0-3-4-3----------------|

A|---------------------------------0-2-4---------00-8\\2--00-8\\2-|

E|-0-1-3-0-1-0--0-1-3-0-1-0--0-1-3------------------------------|

G|-------------------------------------------------------------|

D|-----------------------------------------0-3-4-3--22-2--22-2-|

A|-----------------------------------0-2-4----------00-0--00-0-|

E|-0-1-3-0-1-0---0-1-3-0-1-0---0-1-3---------------------------|

Pre-Chorus:

G|-------------- 7x ---------|

D|-------------- -0--0--0-|

A|-------------- ---------|

E|-2-1-0-2-4-2-- ---------|

Chrous:

G|-----------------------|

D|-----------------------| 4x

A|-555555555555----------|

E|---------------444-333-|

Bridge:

G|-----------------------------------------------------------------------------------------|

D|-----------------------------------------------------------------------------------------|

A|-----------------------------------------------------------------------------------------|

E|-0~----0~-------------000~-000~-000~-000~--000~--000~--00-1--00-1--00-1--00-1-00-1--00-1-|

G|------------------------|

D|------------------------| Listen to the song well for the timing...

A|------------------------|

E|-00--000--00--000--00---|

.. ... .. ... ..

G|------------------------|

D|------------------------|

A|------------------------|

E|-00--000--00--000--00---|

.. ... .. ... ..

Pre-Chorus:

G|-------------- 7x ---------|

D|-------------- -0--0--0-|

A|-------------- ---------|

E|-2-1-0-2-4-2-- ---------|

Chrous:

G|-----------------------|

D|-----------------------| 4x

A|-555555555555----------|

E|---------------444-333-|

Outro:

G|-------------------------------|

D|-------------------------------|

A|-555555555555555555555---------|

E|-----------------------444-333-|

.....................

Added by tabs-database.com and our distinguished partners

Get this song at:  amazon.com sheetmusicplus.com

Share your thoughts

0 Comments found