Kamikazee

Kamikazee - Lucky guitar tab

Sory friends for the long absence... got bc na kc m 3rd yr. high na kc s SLSU-TO...

narin ako nakapag update… hehehe… Cge, tumingin ako sa ibang tabs ng song na2 but, really,

SUCKS kaya gawa nlng ako ng sa akin para sa inyo lahat… this tab is almost 100% accurate

try nyo po, ec lng to... hope u like it guyzzzz… hehehe… Hi pala sa asawa ko, Nikki

Acuña… Love ni nako xa pagau datz y m sooo lucky… Love u mommy!!! Mwaaaaah,

mwaaaaaaaaahhhh… hahaha… add me nga pala sa friendster nyo, webmaster at tabs-database.com.com and for comments

everything, 09183865859, 09155499854, 09268955888…

Tuning: Drop D

DAdBGE

Legends

*-Palm Muting

~-Pick slide

/ or \\ or s-slide

h-hammer

p-pull-off

Verse 1

Guitar 1 and 2

|-----------|

|-----------|

|---7-------|

|---7-------|

|---5--~~~~~|

|-----------|

Early morning

|-------------------------------------------------------|

|-------------------------------------------------------|

|-------------------7-77777777777-----------------------|

|--9-99999999999----7-77777777777---9-99999999999-------|

|--9-99999999999----5-55555555555---9-99999999999-------|

|--9-99999999999--------------------9-99999999999-------|

*********** *********** ***********

|----------------------------------------------------------------|

|----------------------------------------------------------------|

|--------------------------------7-77777777777-------------------|

|--7-777777777--9-99999999999----7-77777777777---9-99999999999---|

|--7-777777777--9-99999999999----5-55555555555---9-99999999999---|

|--5-555555555--9-99999999999--------------------9-99999999999---|

********* *********** *********** ***********

Time for make up…

Pre-Chorus

Guitar 1

|----------------------------------------------------------|

|----------------------------------------------------------|

|---77777777/--999--/--111111--\\---6666--/---7777----------|

|---xxxxxxxx---xxx-----x-x-x-------xxxx--/---xxxx----------|

|---55555555/--777--/--9-9-9---\\---4444--/---5555----------|

|----------------------------------------------------------|

Isn’t she lucky…

Guitar 2

|-----------------------------------------------|

|-----------------------------------------------|

|---77777777---44444444-------------------------|

|---77777777---44444444---55555555---77777777---|

|---55555555---22222222---55555555---77777777---|

|-------------------------55555555---77777777---|

Pause for the base

|----------------------|

|----------------------|

|----------------------|

|---7--5--4--2---0-----|

Chorus

Guitar 1 and 2

|-----------------------------------------------|

|-----------------------------------------------|

|---77777777---44444444-------------------------|

|---77777777---44444444---55555555---77777777---|2x

|---55555555---22222222---55555555---77777777---|

|-------------------------55555555---77777777---|

She’s so lucky…

Interlude

Guitar 1 and 2

|----------------------------|

|----------------------------|

|-6s7-6s7-6s7-6s7s12s11------|

|-x-x-x-x-x-x-x-x-x--x-------|

|-4s5-4s5-4s5-4s5s10s9-------|

|----------------------------|

Verse 1 (AGAIN!!!)

Guitar 1 and 2

|-----------|

|-----------|

|---7-------|

|---7-------|

|---5--~~~~~|

|-----------|

Early morning

|---------------------------------------------------------------|

|---------------------------------------------------------------|

|------------------7--------7--------7--------------------------|

|--9-99999999999---7--------7--------7----------9-99999999999---|

|--9-99999999999---5--------5--------5----------9-99999999999---|

|--9-99999999999--------------------------------9-99999999999---|

*********** Knock! Knock! Knock! ***********

|----------------------------------------------------------------|

|----------------------------------------------------------------|

|--------------------------------7-77777777777-------------------|

|--7-777777777--9-99999999999----7-77777777777---9-99999999999---|

|--7-777777777--9-99999999999----5-55555555555---9-99999999999---|

|--5-555555555--9-99999999999--------------------9-99999999999---|

********* *********** *********** ***********

Time for make up…

(Repeat Pre-Chorus)

(Repeat Chorus)

Interlude

|----------------------|

|----------------------|

|-6s7---6s7s12s11------|

|-x-x---x-x-x--x-------|

|-4s5---4s5s10s9-------|

|----------------------|

|--------------------------------|

|--------------------------------|

|-6s7-6s7-6s7-6s7-6s777777777----|

|-x-x-x-x-x-x-x-x-x-xxxxxxxxx----|

|-4s5-4s5-4s5-4s5-4s555555555----|

|--------------------------------|

Ay ay ay ay ay…

|----------------------|

|----------------------|

|-6s7---6s7s12s11------|

|-x-x---x-x-x--x-------|

|-4s5---4s5s10s9-------|

|----------------------|

|--------------------------------|

|--------------------------------|

|-6s7-6s7-6s7-6s7-6s777777777----|

|-x-x-x-x-x-x-x-x-x-xxxxxxxxx----|

|-4s5-4s5-4s5-4s5-4s555555555----|

|--------------------------------|

Ay ay ay ay ay…

|----------------------|

|----------------------|

|-6s7---6s7s12s11------|

|-x-x---x-x-x--x-------|

|-4s5---4s5s10s9-------|

|----------------------|

Pre-Chorus

Without distortion and slow strumming

Guitar 1

|----------------------------------------|

|----------------------------------------|

|---7---44444444-------------------------|

|---7---44444444---55555555---7777-9999--|

|---5---22222222---55555555---7777-9999--|

|------------------55555555---7777-9999--|

GIRL!!!!-Distorted

Chorus

Guitar 1 and 2

|-----------------------------------------------|

|-----------------------------------------------|

|---99999999---66666666-------------------------|

|---99999999---66666666---77777777---99999999---|4x

|---77777777---44444444---77777777---99999999---|

|-------------------------77777777---99999999---|

Outro

Guitar 1

|-----------------------|

|-----------------------|

|---8s9-8s9-8s9-8s11----|

|---x-x-x-x-x-x-x-x-----|

|---6s7—6s7-6s7-6s9-----|

|-----------------------|

Guitar 2

|-------------------------|

|-------------------------|

|---999---666-------------|

|---999---666---777--999--|

|---777---444---777--999--|

|---------------777--999--|

Guitar 1

|---------------|

|---------------|

|---10-/--11----|

|---x-----x-----|4x

|---8--/--9—----|

|---------------|

Guitar 2

|-------------------------|

|-------------------------|

|---999---666-------------|

|---999---666---777--999--|

|---777---444---777--999--|

|---------------777--999--|

Solo

Guitar 1

Do it fast for guitar 1

|--4-0-5-0-7-0-5-4h5p4----|

|-------------------------|

|-------------------------|

|-------------------------|6x

|-------------------------|

|-------------------------|

Guitar 2

|-----------------------------------------------|

|-----------------------------------------------|

|---99999999---66666666-------------------------|

|---99999999---66666666---77777777---99999999---|2x

|---77777777---44444444---77777777---99999999---|

|-------------------------77777777---99999999---|

Why do this…

Pls rate poh!!!

Lyrics

Early morning she wakes up

Theres a knock knock knock on her door

Its time for makeup perfect smile

And its you that they all waiting for

Isn't she lovely this hollywood girl

Chorus:

She so lucky she's a star

But she cry cry cry in her

Lonely heart thinkin

If there something missin in her life

Then why do this tears come at night

Early morning she wakes up

Theres a knock knock knock on her door

Its time for makeup perfect smile

And its you that they all waiting for

Isn't she lovely this hollywood girl

Chorus:

She so lucky she's a star

But she cry cry cry in her

Lonely heart thinkin

If there something missin in her life

Then why do this tears come at night

Isn't she lovely this hollywood girl!!!!

Isn't she lovely but why does she cry

If there is nothing missing in her life

Why do this tears come at night

She so lucky lucky girl

But cry cry

Booty shes a lucky lucky girl lucky

If there something missing in tonight

Then why do this bridge is falling down

Why do this tears come at nightAdded by tabs-database.com and our distinguished partners

Get this song at:  amazon.com sheetmusicplus.com

Share your thoughts

0 Comments found