Kamikazee

Kamikazee - Kanya Kanyang Kuha guitar tab

Song:KKK

Album:Maharot

Artist:Kamikazee

Date:March,2006

Tabber:Ryan Manongdo

15 yrs old,Montalban Rizal

webmaster at tabs-database.com.com(Friendster&YM)

Notes:Pakinggan nyo na lang ng maige para makuha nyo yung timing.

Yung ibang parts nga pala dito mejo hindi ko sigurado pero

ayos na rin ito,Mga 90% accurate naman!!hehe..Kung may mga

mali o kulang kayo ng bahalang mag-ayos o mag-dagdag.Pwede

nyo ding lait-laitin!!hehe..Para nga pala ito sa mga bulok

na Karnabal na sistema!!!Peace V and ROCK ON \\;;/, !!!

Gtr.Legends

. means PALM MUTED

h means HAMMER ON

x means DEAD STRING

~ means LET IT RING

t means TAPPING

/ means SLIDE-DOWN

\\ means SLIDE-UP

b means BEND

Intro prt 1:

Both Gtr.

e---------|

B--0-0-0--|

G--0-0-0--|

D---------|

A---------|

E---------|

. . .

Intro prt 2:

Gtr.1

e-------------- ---------------|

B-------------- ---------------|

G-------------- 2x ---------------|

D--777777777--- --7777-6666----|

A--555555555--- --7777-6666----|

E-------------- --5555-4444----|

.........

Gtr.2

e-------------- ---------------|

B-------------- ---------------|

G---------8-7-- 2x ---------------|

D--77777--x-x-- --7/8-7--------|

A--55555--6-5-- --7/8-7--------|

E-------------- --5/6-5--------|

..... . .

Verse 1:

Gtr.1

e---------------|

B---------------|

G---------------| 2x Then

D---------------|

A---------------|

E-0-1-3-0-1-0---|

e------------------------------ -----------------------------------|

B------------------------------ Ito -----------------------------------|

G------------------------------ na -----------------------------------|

D-------------0-2-3------------ yung -------------0-2-4-----------------|

A-------0-2-4---------0-0-0-0-- may -------0-2-4--------00-8\\1-00-8\\1--|

E-0-1-3------------------------ slide -0-1-3-----------------------------|

. . . .

Gtr.2(Fill Lead)

e--15-15-15-15-----|

B------------------|

G------------------|

D------------------|

A------------------|

E------------------|

Pre-Chorus:

Both Gtr.

e------------------ ---------|

B------------------ Many --0-0-0--|

G------------------ Times --0-0-0--|

D------------------ Then ---------|

A------------------ ---------|

E-2-1-0-2-4-2------ ---------|

. . .

Chorus:

Play intro prt.2

Verse 2:

Play Verse 1

Repeat Pre-Chorus

Repeat Chorus:

Bridge prt.1

e--------- ---------------------------|

B-0~---0~- ---------------------------| Bhala n kyo

G-0~---0~- ---------------------------| s palm mute

D-0~---0~- ---------------------------| at strumming

A-0~---0~- -2222-22-2-----------------| d2..

E--------- -0000-00-0--0001h0-0001h0--|

Bridge prt.2

Gtr.1:Play nyo i2 Gtr.2:Play nyo naman i2 kpag

hanggang s bridge kumanta n c JAY!!Nde aq mxadong

prt.3 sure d2 pero ok n rn!!hehe..

e------------ -------------- ----------------|

B------------ -------------- -11t-44t3t2t----| Repeat

G------------ ---11t44t3t2t- ----------------| Both

D------------ -------------- ----------------| Many

A-22--222---- -------------- ----------------| Times..

E-00--000---- -------------- ----------------|

.. ...

Bridge prt.3(End of Bridge)

Pick Slide

e-------------- ---------|

B-------------- Many --0-0-0--|

G-------------- Times --0-0-0--|

D-------------- Then ---------|

A-------------- ---------|

E-2h1--0-2-4-2- ---------|

. . .

Repeat Chorus:

Outro:

Gtr.1

e----------------------------|

B----------------------------|

G----------------------------|

D--777777777----7777-6666----|

A--555555555----7777-6666----|

E---------------5555-4444----|

.........

Gtr.2

e---------------------------------------|

B---------------------------------------|

G--------8-7-8-10--8-7-8-10-------------|

D-777777-x-x-x-x---x-x-x-x---7/8-7------|

A-555555-6-5-6-8---6-5-6-8---7/8-7------|

E----------------------------5/6-5------|

...... . . . . . . . .

End...

Lyrics by forget_013

Verse 1:

Sir,baka pwede nating pag-usapan

Ang aking kasalanan

Baka pwedeng kalimutan

Sa bawat sulok ng ating lipunan

Hindi ko halos lahat nababayaran

Pabor kay ganito pabor kay ganyan

Kapalit na tulong ay utang utang utang utang

Pag-dating ng singilan

Utang na loob ang kabayaran

Nasan na ang mga bayani

Tuluyan na silang nabaon sa nakaraan

Pre-Chorus:

Pag-tangis ng aming bayan

Dama ng aming kahirapan

Chorus:

Pulitika't pelikula tila iisa

Matira ang matibay Karnabal na sistema

Lahat gusto kumita

Mag-paikot ng istorya

Sa aming paningin

Lahat ay kontra bida

Nau-ulol kumakahol bumubula ang laway

Lumalabas ang pangil

Tumutubo ang sungay

Espadahan ng salita sino ang kawawa

(Lahat daw sila'y tama)Lahat kami kawawa

Verse 2:

Naturingan kang may pinag-aralan

Ngunut bakit ikaw ang dahilan ng kaguluhan

Nais lang nila mabuhay ng karaniwan

May kasaganahan at bubong na masisilungan

Para saan pa ang kasunduan kung babaliin din naman

Ang sakit isipin na mabawi ang bayang kinalakihan

Ilagay mo ang kanang kamay sa tapat ng iyong puso

Sabay sabi mo ang mamatay ng dahil sayo

Repeat Chorus:

Ang sarap takasan ng bayang kinalakihan

Ang sarap takasan ng kabaliwan

Ang sarap takasan ng kahirapan

Pera ang katotohanan

Masasagip ka ba 4x

Repeat Chorus:

Enjoi...

Jaquolin Maghapon

Bass:

G------------------------------------------------|

D---7-7------7-7-6-5-------9-9------9-9-8-7------|

A-5------5-5---------6--7b------7-7---------8----|

E------------------------------------------------|

Paulit-ulit lang

G------------------------------------------------|

D---7-7------7-7-6-5-----------------------------|

A-5------5-5---------6----9-9-------9-9-8-7------|

E-----------------------7------7-7----------8----|

Guitar:Kyo ng bhala dun,tntamad nq eh!!mdali lng un..mga bandang 12

at 17 lang fret nun!!gmit kyo ng 1st at 2nd string!!!

Enjoi.....

I would like to greet my f*ckin HORNY friends;Ram,Andrei,Louis,

Migs,Geoffrey,Roi,& Nath Ahaha...My Band Mates;Edy,Dino,Jiro,Mik2,

Andrei and Aeroll(Padre Garotte),The DOTA ALL-STARS of NSDAPS San

Mateo Rizal,The Tower RED Records for nothing,Sa mga ka-CSTRIKE at

ka GB ko,Ung mga frndsz ko sa Montalban and my Luv;Cesz!!nyahaha...

V and \\;;/,Added by tabs-database.com and our distinguished partners

Get this song at:  amazon.com sheetmusicplus.com

Share your thoughts

0 Comments found