Kamikazee

Kamikazee - Kantutan guitar tab

-Song:KaNTUtAn

Album:Maharot

Artist:Kamikazee

Date Tabbed:OCTOBER,2006

Guitar Tabber:aBner pAreDes, jR/17/m/bac0Lod citY, negR0s occidenTaL

webmaster at tabs-database.com.com(Friendster)

09216675120(smartz Cell)

Gtr.Legends:

x - DEAD STRING

. - PALM MUTING

Gtr.Tuning:Standard(Normal)

Intro prt1

gtr. 1 (low gain)

e|-----------------------------------|

B|-----------------------------------|

G|----------6-4-6---7-6-7---9-7-9----|

D|--7-6-7---6-4-6---7-6-7---9-7-9----| (2x)

A|--7-6-7---4-2-4---5-4-5---7-5-7----| ...tp0z pasok lahat

E|--5-4-5----------------------------|

Intro prt2

Gtr. 2 (high gain,.. lakas!!)

e|-----------------------------------|

B|-----------------------------------|

G|----------6-4-6---7-6-7---9-7-9----|

D|--7-6-7---6-4-6---7-6-7---9-7-9----| (2x)

A|--7-6-7---4-2-4---5-4-5---7-5-7----|

E|--5-4-5----------------------------|

verse

nung una kang makita..

e|----------------------------------------------|

B|----------------------------------------------|

G|------------------7777----9999----99997777----|

D|--7777----4444----7777----9999----99997777----|

A|--7777----4444----5555----7777----77775555----|

E|--5555----2222--------------------------------|

e|-------------------------------------------------|

B|-------------------------------------------------|

G|------------------7777----9999----99----99999----|

D|--7777----4444----7777----9999----99----99999----|

A|--7777----4444----5555----7777----77----77777----|

E|--5555----2222-----------------------------------|

Chorus

e|-----------------------------------|

B|-----------------------------------|

G|----------6-4-6---7-6-7---9-7-9----|

D|--7-6-7---6-4-6---7-6-7---9-7-9----| (3x)

A|--7-6-7---4-2-4---5-4-5---7-5-7----| ..tpoz,

E|--5-4-5----------------------------|

e|-----------------------------------|

B|-----------------------------------|

G|----------6-4-6---7-6-7---9---7----|

D|--7-6-7---6-4-6---7-6-7---9---7----| (1x)

A|--7-6-7---4-2-4---5-4-5---7---5----| tp0z..

E|--5-4-5----------------------------|

bridge( bridge??.. ah basta am0 na ah.. )

gtr2.

e|--------------------------(!)--------------------------------------(!)---|

B|--------------------------(H)--------------------------------------(H)---|

G|--------------------7777--(A)-----------------------------7777-xxx-(A)---|

D|--7777--7777--4444--7777--(R)--(2X)--7777--7777-xxx-4444--7777-xxx-(R)---| (2x)

A|--7777--7777--4444--5555--(W)--------7777--7777-xxx-4444--5555-xxx-(W)---|

E|--5555--5555--2222--------(H)--------5555--5555-xxx-2222-----------(H)---|

gtr2.

e|--------------------------------(!)---|

B|--------------------------------(H)---|

G|-----------------------7777-xxx-(A)---|

D|--7777--7777-xxx-4444--7777-xxx-(R)---| (4x)

A|--7777--7777-xxx-4444--5555-xxx-(W)---| ..tpoz

E|--5555--5555-xxx-2222-----------(H)---|

pasok..gtr1(parang nag pu-pulloff d2..(x_x)..)

e|-----------------------------------------------------(!)---|

B|--9-10-12-10--9-10-12-10--9-10-12-10--14-12-10-12----(H)---|

G|-----------------------------------------------------(A)---|

D|-----------------------------------------------------(R)---| (4x)

A|-----------------------------------------------------(W)---| ..tpoz

E|-----------------------------------------------------(H)---|

tpoz prang sabay..

e|--------------------------|

B|--------------------------|

G|--9--x--11--x--13--x--16--|

D|--x--x--x---x--x---x--x---|

A|--7--x--9---x--11--x--14--| ..tpoz

E|--------------------------|

........................

( hala cgE!!? bAnat!!? )

uhh!.. eahh!.. uhhmm..

e|--xxxxxxxxxxxxxxxxxxxxxx---|

B|--xxxxxxxxxxxxxxxxxxxxxx---|

G|--xxxxxxxxxxxxxxxxxxxxxx---|

D|--xxxxxxxxxxxxxxxxxxxxxx---|

A|--xxxxxxxxxxxxxxxxxxxxxx---| ..tpoz

E|--xxxxxxxxxxxxxxxxxxxxxx---|

........................ Added by tabs-database.com and our distinguished partners

Get this song at:  amazon.com sheetmusicplus.com

Share your thoughts

0 Comments found