Kamikazee

Kamikazee - Itanong Mo guitar tab

Song: Itanong mo sa akin ( dulo sa song ng chiksilog)

Artist: Kamikazee

Album: Maharot

Tabber: Michael -chico- Rombawa

for friendstertseness : webmaster at tabs-database.com.com

for myspacers & neatvibers: webmaster at tabs-database.com.com

title ng kanta Question? or Itanong mo sa akin ( dulo sa song ng chiksilog)

bahala na kau kung anu gusto nu title...

ginawa ko 2 kasi nakakatawa xya, nd c jay kumanta n2 c jomel ata..

sana magustohan nu.

Intro

D A B G

E-------------------------------------------------|

B------------6-----------------3------------------|

G-------7--777--------6---4--444---------4--------|

D-------7--777---7--777---4--444----5--555--------|

A-------5--555---7--777---2--222----5--555--------|

E----------------5--555-------------3--333--------|

D A B G

E-------------------------------------------------|

B------------6-----------------3------------------|

G-------7--777--------6---4--444---------4--------|

D-------7--777---7--777---4--444----5--555--------|

A-------5--555---7--777---2--222----5--555--------|

E----------------5--555-------------3--333--------|

Oooooh... Whoaahh.. oooooH.... Oooh.

D A B G

E-------------------------------------------------|

B------------6-----------------3------------------|

G-------7--777--------6---4--444---------4--------|

D-------7--777---7--777---4--444----5--555--------|

A-------5--555---7--777---2--222----5--555--------|

E----------------5--555-------------3--333--------|

Itanong mo sa akin ang Question ko

D A B G

E-------------------------------------------------|

B------------6-----------------3------------------|

G-------7--777--------6---4--444---------4--------|

D-------7--777---7--777---4--444----5--555--------|

A-------5--555---7--777---2--222----5--555--------|

E----------------5--555-------------3--333--------|

Oooooh... Whoaahh.. oooooH.... Oooh.

D A B G

E-------------------------------------------------|

B------------6-----------------3------------------|

G-------7--777--------6---4--444---------4--------|

D-------7--777---7--777---4--444----5--555--------|

A-------5--555---7--777---2--222----5--555--------|

E----------------5--555-------------3--333--------|

Itanong mo sa akin ang Question ko

D A B G

E-------------------------------------------------|

B------------6-----------------3------------------|

G-------7--777--------6---4--444---------4--------|

D-------7--777---7--777---4--444----5--555--------|

A-------5--555---7--777---2--222----5--555--------|

E----------------5--555-------------3--333--------|

Oooooh... Whoaahh.. oooooH.... Oooh.

D A B

E------------------------------------------|

B------------------------------------------|

G---------7-----------------4--------------|

D---------7--------7--------4--------------|

A---------5--------7--------2--------------|

E------------------5-----------------------|

Itanong mo sa akin ang question

Added by tabs-database.com and our distinguished partners

Get this song at:  amazon.com sheetmusicplus.com

Share your thoughts

0 Comments found