Kamikazee

Kamikazee - Ikaw Parim Pala guitar tab

Song:Ikaw Parim Pala

Album:Kamikazee

Artist:Kamikazee

Date:May,2006

Tabber:Ryan Manongdo

16/m/Montalban Rizal

webmaster at tabs-database.com.com(Friendster&YM)

09229015724(Sun Cell)

Notes:Tune your gtr.correctly,don't be too stupid,listen to the song well

and follow the method.For any comments,questions,or suggestions,You

can Post a Comment,PM,Email,Frndster Message or you can Text me!!!

Peace V and ROCK ON \\m/,

Gtr.Legends:

~ - LET IT RING

x - DEAD STRING

. - PALM MUTING

h - HAMMER-ON

/ - SLIDE

Gtr.Tuning:Standard(Normal)Tuning

Intro prt.1:

Gtr.1

e|--------------------- ------|

B|--------------------- ------|

G|--7~---7~---7~---7~-- Then ------|

D|--7~---7~---7~---7~-- --7~--|

A|--5~---5~---5~---5~-- --7~--|

E|--------------------- --5~--|

Gtr.2

e|--------------------- ------|

B|--------------------- ------|

G|--------------------- Then ------|

D|--7x7x7x7x7x7x7x7x7-- --7~--|

A|--------------------- --7~--|

E|--------------------- --5~--|

.................

e|-----------------------------------------|

B|-----------------------------------------|

G|--7-7-7-7--------------7-7-7-7-----------|

D|--7-7-7-7--5-5--7-7----7-7-7-7---5-5--5--|

A|--5-5-5-5--5-5--7-7----5-5-5-5---5-5--5--|

E|-----------3-3--5-5--------------3-3--5--|

.

Intro prt.2

e|---------------------------------------------|

B|---------------------------------------------|

G|--777777--------7777---77777-----------------|

D|--777777--5555--7777---77777--5555--7-5-7----|

A|--555555--5555--7777---55555--5555--7-5-7----|

E|----------3333--5555----------3333--5-3-5----|

. . .

Verse:

Hoy pare may bagong balita ako...

Gtr.1

e|----------------------|

B|----------------------|

G|-77--77---------------| 4x

D|-77--77-77--55--77----|

A|-55--55-77--55--77----|

E|--------55--33--55----|

.. .. .. ..

Gtr.2 Enters:

Akala ko tapos na ang istorya...

e|------------------------|

B|--7h8-7h8-7h8-7h8/10----|

G|------------------------| 2x

D|------------------------|

A|------------------------|

E|------------------------|

e|------------------------------------------|

B|------------------------------------------|

G|--77777-----------------77777-------------|

D|--77777--55555--77777---77777--5555--7~---|

A|--55555--55555--77777---55555--5555--7~---|

E|---------33333--55555----------3333--5~---|

Repeat Verse:

Ngaun tuloy do ko alam kung paano ba....

Pre-Chorus:

Kung bukas man mag-kita...

e|----------------------------|

B|----------------------------|

G|--------------7777----------|

D|--9999--5555--7777--7777----|

A|--9999--5555--5555--7777----|

E|--7777--3333--------5555----|

Sana masabi sa kanya...

e|--------------------------------|

B|--------------------------------|

G|--------------77-6-7--77-6-7----|

D|--9999--5555--77-6-7--77-6-7----|

A|--9999--5555--55-4-5--55-4-5----|

E|--7777--3333--------------------|

.. . . .. . .

Ang tanging panalangin ko...

e|----------------------------|

B|----------------------------|

G|--------------7777----------|

D|--xxx9--5555--7777--7777----|

A|--xxx9--5555--5555--7777----|

E|--xxx7--3333--------5555----|

Isa pang pag-kakataon sayo...

e|-----------------------|

B|-----------------------|

G|-----------------------|

D|--x999--5555--777777---|

A|--x999--5555--777777---|

E|--x777--3333--555555---|

Chorus:

Ikaw Parim Pala....

Gtr.1

e|---------------------------|

B|---------------------------|

G|--7777---------------------| 4x Then

D|--7777--7777--9999--5555---|

A|--5555--7777--9999--5555---|

E|--------5555--7777--3333---|

Gtr.2 Enters

e|-------------------|

B|-------------------|

G|--7777777777777----|

D|--xxxxxxxxxxxxx----|

A|--5555555555555----|

E|-------------------|

e|--------------------------------------------------------|

B|--------------------------------------------------------|

G|--7777--------------------------------------------------|

D|--7777--7777--9999--5555---7777777--111111--9-7-5-7-5---|

A|--5555--7777--9999--5555---7777777--111111--9-7-5-7-5---|

E|--------5555--7777--3333---5555555--999999--7-5-3-5-3---|

. . . . .

Gtr.Solo

Gtr.1

e|-----------------------|

B|-----------------------|

G|--77777----------------| 4x

D|--77777--5555--7777----|

A|--55555--5555--7777----|

E|---------3333--5555----|

Gtr.2:Inaayos ko pah...

Repeat Pre-Chorus:

Repeat Chorus:

Instrumental Solo Part 1:

Gtr.1

e|-----------------|

B|-----------------|

G|--77777777777----|

D|--77777777777----|

A|--55555555555----|

E|-----------------|

Gtr.2 Enters

e|-------|

B|-------|

G|--7~---|

D|--7~---|

A|--5~---|

E|-------|

Gtr.1

e|---------------------------------|

B|---------------------------------|

G|--77777--------------------------| 4x

D|--77777--77777--99999--55555-----|

A|--55555--77777--99999--55555-----|

E|---------55555--77777--33333-----|

Gtr.2

e|---------------------------------|

B|---------------------------------|

G|--77777/99999/11111/1212121212---| Next prt.

D|--xxxxx-xxxxx-xxxxx-xxxxxxxxxx---| Not finish

A|--55555/77777/99999/1010101010---|

E|---------------------------------|

Instrumental Solo prt.2

e|------------------------|

B|--7h8-7h8-7h8-7h8/10----|

G|------------------------| 2x

D|------------------------|

A|------------------------|

E|------------------------|

e|-----------------------------------------|

B|-----------------------------------------|

G|--7-7-7-7--------------7-7-7-7-----------|

D|--7-7-7-7--5-5--7-7----7-7-7-7---5-5--5--|

A|--5-5-5-5--5-5--7-7----5-5-5-5---5-5--5--|

E|-----------3-3--5-5--------------3-3--5--|

.

e|---------------------------------------------|

B|---------------------------------------------|

G|--777777--------7777---77777-----------------|

D|--777777--5555--7777---77777--5555--7-7-7-7--|

A|--555555--5555--7777---55555--5555--7-7-7-7--|

E|----------3333--5555----------3333--5-5-5-5--|

. . .

Last Chord:

e|-------|

B|-------|

G|--7~---|

D|--7~---|

A|--5~---|

E|-------|

End...

Lyrics by forget_013

or visit www.kumanta.com

Verse:

Hoy pare may bagong balita ako

Nakasalubong ko kanina dating syota ko

Akala ko tapos na ang storya

Nakita ka biglang lahat ay naalala

Ngayon tuloy di ko alam paano ba?

Nagkandaloko na tawagan ko kaya

Paano kung mayroong ibang kasama

Bahala na basta dapat na malaman nya

Pre-Chorus:

Kung bukas man magkita sana masabi sa kanya

Ang tanging panalanagin ko isa pang pag kakataon

Manliligaw uli sayo

Hanggang sa dulo ng mundo

Chorus:

Ikaw parimpala

Nagbihag ng puso ko sinta

Ikaw parimpala wala ng iba

Enjoi...

I would like to greet my friends in our school NSDAPS San Mateo Rizal,

My friend in Montalaban Rizal,My friends in YM and Friendster My Baby;

Magella,and my Band Mates.....

Padre Garotte:

Dino Testa:Vocals

Andrei Frondoso:Sub-Vocals

Edy Capistrano:Lead Guitar

Kenjiro Uezono:Rhythm Guitar

Mike Alvez:Sub-Guitar

Ryan Manongdo:Bass

Aeroll Cayetano:DrumsAdded by tabs-database.com and our distinguished partners

Get this song at:  amazon.com sheetmusicplus.com

Share your thoughts

0 Comments found