Kamikazee

Kamikazee - Girlfirend guitar tab

Kamikazee

----Girlfriend----

STANDARD TUNNING (EADGBE)

this is my first tab... hope u like it...

tang ina da best ang kantang ito!

pinoy rock rulee mail me at alfredkarlo@yahoo.com

bye!

rate this matha***ing song ok?!?!

INTR0

|-------------

|-------------

|--7-7-x-7-7--

|--7-7-x-7-7--

|--5-5-x-5-5--

|-------------

GTR.1

|------------------------------------

|------------------------------------

|--7-7------7-7----------------------

|--7-7--5-5-----7-7-5-5-4-4-5-5-7-7-- 4x

|--5-5-------------------------------

|------------------------------------

OR

|------------------------------------

|------------------------------------

|----------7-7-----------------------

|--0-0-5-5-----7-7-5-5-4-4-5-5-7-7--- 4x

|------------------------------------

|------------------------------------

GTR.2

|------------------------------------------------------

|------------------------------------------------------

|--7-7-7-7---------------------------------------------

|--7-7-7-7--2x--7-7-7-7------9-9-9-9------5-5-5-5------ 2x

|--5-5-5-5------7-7-7-7--2x--9-9-9-9--2x--5-5-5-5--2x--

|---------------5-5-5-5------7-7-7-7------3-3-3-3------

END OF INTRO

|------------

|------------

|--7-7-7-7---

|--7-7-7-7--- 2X

|--5-5-5-5---

|------------

VERSE 1

GTR.1 R1

|-------------------------------------------------------

|-------------------------------------------------------

|-------------------------------------------------------

|--7-7-7-7--x2------------------------------------------

|--5-5-5-5------7-7-7-7--x2--9-9-9-9--2x--5-5-5-5--2x---

|---------------5-5-5-5------7-7-7-7------3-3-3-3-------

R2

|------------------------------------------------------

|------------------------------------------------------

|--7-7-7-7---------------------------------------------

|--7-7-7-7--x2--7-7-7-7------9-9-9-9------5-5-x-5-5-x--

|--5-5-5-5------7-7-7-7--x2--9-9-9-9--2x--5-5-x-5-5-x--

|---------------5-5-5-5------7-7-7-7------3-3-x-3-3-x--

GTR.2 Ra2

|-----------------------------------------------------------

|-----------------------------------------------------------

|--7-7-7-7/------9-9-9-9/-----11-11-11-11/------12-12-12-12-

|--x-x-x-x/--x2--x-x-x-x/--2x--x--x--x--x/--2x---x--x--x--x-

|--5-5-5-5/------7-7-7-7/------9--9--9--9/------10-10-10-10-

|-----------------------------------------------------------

VERSE 2

GTR.1 R1

|------------------------------------------------------------------

|------------------------------------------------------------------

|------7-----7-----------------------------------------------------

|--7-7-7-7-7-7-x2-------7-----7-----------9-----9----------5-----5-

|--5-5---5-5--------7-7-7-7-7-7-x2----9-9-9-9-9-9-2x---5-5-5-5-5-5-2x

|-------------------5-5---5-5---------7-7---7-7--------3-3---3-3---

R2

|------------------------------------------------------

|------------------------------------------------------

|--7-7-7-7---------------------------------------------

|--7-7-7-7--x2--7-7-7-7------9-9-9-9------5-5-x-5-5-x--

|--5-5-5-5------7-7-7-7--x2--9-9-9-9--2x--5-5-x-5-5-x--

|---------------5-5-5-5------7-7-7-7------3-3-x-3-3-x--

GTR.2 Rb2

|-----------------------------------------------------------

|-----------------------------------------------------------

|--7-7-7-7/------9-9-9-9/-----11-11-11-11/------12-12-12-12-

|--x-x-x-x/--x2--x-x-x-x/--2x--x--x--x--x/--2x---x--x--x--x-

|--5-5-5-5/------7-7-7-7/------9--9--9--9/------10-10-10-10-

|-----------------------------------------------------------

REPEAT>INTRO

REPEAT>VERSE1

REPEAT>VERSE2

CHORUS

GTR.1

|------------------------------------

|------------------------------------

|--7-7------7-7----------------------

|--7-7--5-5-----7-7-5-5-4-4-5-5-7-7-- 4x

|--5-5-------------------------------

|------------------------------------

OR

|------------------------------------

|------------------------------------

|----------7-7-----------------------

|--0-0-5-5-----7-7-5-5-4-4-5-5-7-7--- 4x

|------------------------------------

|------------------------------------

GTR.2

|------------------------------------------------------

|------------------------------------------------------

|--7-7-7-7---------------------------------------------

|--7-7-7-7--2x--7-7-7-7------3-3-3-3------7-7-7-7------ 2x

|--5-5-5-5------7-7-7-7--2x--3-3-3-3--2x--7-7-7-7--2x--

|---------------5-5-5-5------5-5-5-5------5-5-5-5------

|------------------------------------------------------

|------------------------------------------------------

|--7-7-7-7---------------------------------------------

|--7-7-7-7--2x--7-7-7-7------9-9-9-9------5-5-5-5------ 1x

|--5-5-5-5------7-7-7-7--2x--9-9-9-9--2x--5-5-5-5--2x--

|---------------5-5-5-5------7-7-7-7------3-3-3-3------

|------------------------------------------------------

|------------------------------------------------------

|--7-7-7-7---------------------------------------------

|--7-7-7-7--2x--7-7-7-7------3-3-3-3------7-7-7-7------ 1x

|--5-5-5-5------7-7-7-7--2x--3-3-3-3--2x--7-7-7-7--2x--

|---------------5-5-5-5------5-5-5-5------5-5-5-5------

THEN

|------------------------------------------------

|------------------------------------------------

|--7~~~~~~~7-------------------------------------

|--7~~~~~~~7--7~~~~~~~7--9~~~~~~~~5~~~~~~~~~~~~~~ 1x

|--5~~~~~~~5--7~~~~~~~7--9~~~~~~~~5~~~~~~~~~~~~~~

|-------------5~~~~~~~5--7~~~~~~~~3~~~~~~~~~~~~~~

INTERLUDE

GTR.1

|----------------------------

|----------------------------

|----------------------------

|------7---7-7-----7---7-7--- x4

|--5-5---5-----5-5---5-------

|----------------------------

low volume

|----------------------------

|----------------------------

|------7---7-7-----7---7-7---

|------7---7-7-----7---7-7--- x4

|--5-5---5-----5-5---5-------

|----------------------------

high volume

|----------------------------

|----------------------------

|------7---7-7-----7---7-7---

|---------------------------- x4 keep playing while

|--5-5---5-----5-5---5-------

|----------------------------

while

GTR.2

HOOOOOOO.......HOO...HOO.....

|---------------------------------

|---------------------------------

|---------------------------------

|--7-7-7-7--2x--7-7-7-7-7-7-7-7--- 4x

|--5-5-5-5------4-4-4-4-7-7-7-7---

|---------------------------------

|---------------------------------

|---------------------------------

|--7-7-7-7------7-7-7-7-7-7-7-7---

|--7-7-7-7--2x--7-7-7-7-7-7-7-7--- 4x

|--5-5-5-5------4-4-4-4-7-7-7-7---

|---------------------------------

BREAKDOWN

|--------

|--------

|--7-7-x-

|--7-7-x-

|--5-5-x-

|--------

GTR.1

|------------------------------------

|------------------------------------

|--7-7------7-7----------------------

|--7-7--5-5-----7-7-5-5-4-4-5-5-7-7-- 4x

|--5-5-------------------------------

|------------------------------------

OR

|------------------------------------

|------------------------------------

|----------7-7-----------------------

|--0-0-5-5-----7-7-5-5-4-4-5-5-7-7--- 4x

|------------------------------------

|------------------------------------

GTR.2

|-------------------------------------------------------

|-------------------------------------------------------

|-------------------------------------------------------

|--7-7-7-7--x2------------------------------------------ 2x

|--5-5-5-5------7-7-7-7--x2--9-9-9-9--2x--5-5-5-5--2x---

|---------------5-5-5-5------7-7-7-7------3-3-3-3-------

REPEAT>CHORUS

NEXT

DONT EVER LET ME GO...........................................

|------------------------------------------------------

|------------------------------------------------------

|--5-5-5-5------7-7-7-7------7-7-7-7------7-7-7-7------

|--5-5-5-5--2x--7-7-7-7--2x--7-7-7-7--2x--5-5-5-5--2x--

|--7-7-7-7------7-7-7-7------9-9-9-9------5-5-5-5------

|------------------------------------------------------

OUTRO

GTR.1

|----------------------------

|----------------------------

|----------------------------

|------7---7-7-----7---7-7--- x4

|--5-5---5-----5-5---5-------

|----------------------------

|----------------------------

|----------------------------

|------7---7-7-----7---7-7---

|------7---7-7-----7---7-7--- 1x

|--5-5---5-----5-5---5-------

|----------------------------

END

|--------

|--------

|---7----

|---7----

|---5----

|--------

***!

thats all

hope u ***ing like it!

lokar_19

Get this song at:  amazon.com sheetmusicplus.com

Share your thoughts

0 Comments found