Kamikazee

Kamikazee - First Day High guitar tab

Song:First Day High

Artist:Kamikazee

Date:May,2006

Tabber:Ryan Manongdo

16 years old,Montalban Rizal

webmaster at tabs-database.com.com(Friendster&YM)

09229015724(Sun Cell)

Notes:Sorry mga pips kung wala pa yung plucking...wala pa po kasi akong

kopya eh!!umaasa pa lang ako sa radio!!!hehe..kayo munang bahalang

mag-ayos sa song structure,kasi hinde ko pa kabisado ung lyrics...

Ayan na yung whole chords...Kung may mga mali o kulang kayo ng ba-

halang mag-tama o mag-dagdag!!Pwede nyo ding lait-laitin..Uupgrade

ko ito ok?Kung may commento o reklamo,Mag Post a Comment,PM,Frnds-

ter Mess o kaya Text nyo na lang ako!!Peace V and ROCK ON \\;;/, !!

Intro:

Pick Slide Muna

e|---------------------------------------| Dapat mabilis ito!!

B|---------------------------------------|

G|---------------------------------------| Then

D|-9-9--8-8--6-6-------------------------|

A|----------------9-9--7-7--6-6--9-9-----|

E|---------------------------------------|

First Day High!!

e|-----------------------------------|

B|-----------------------------------|

G|-9-9---8-8---6-6-------------------|

D|------------------9-9---5-5-5------|

A|------------------------5-5-5------|

E|------------------------3-3-3------|

. . .

Nasasabik sa unang araw ng iskuwela...

e|--------------------------------P--|

B|--------------------------------A--|

G|--------------------------------U--|

D|-55555555---7777777---333333333-S--|

A|-33333333---7777777---333333333-E--|

E|------------5555555---111111111-D--|

First day ng iskul...

e|------------------| Dapat ito plucking...kso nde q pa alm kc

B|------------------| wala pa akong kopya!!!hehe..

G|------------------|

D|-5~---------------|

A|-3~--7~--3~--3~---|

E|-----5~--1~--1~---|

Umaapaw sa talino,do the brainy high....

e|----------------------------------------|

B|----------------------------------------|

G|----------------------------------------|

D|--555555--5555555-----------------------|

A|--333333--5555555-----------------------|

E|----------3333333-----------------------|

F-I-R-S-T D-A-Y first day high....

e|-----------------------------------|

B|-----------------------------------|

G|-----------------------------------|

D|-xxxxxxxxxxxxxxxxxxxxxxxxxxxxxx----|

A|-xxxxxxxxxxxxxxxxxxxxxxxxxxxxxx----|

E|-xxxxxxxxxxxxxxxxxxxxxxxxxxxxxx----|

Outro:

First Day High...

e|-----------------------------------------------|

B|-----------------------------------------------|

G|-----------------------------------------------|

D|--555--777---333--5----555--777--5555--333-5~--|

A|--333--777---333--5----333--777--5555--333-3~--|

E|-------555---111--3---------555--3333--111-----|

End...

Added by tabs-database.com and our distinguished partners

Get this song at:  amazon.com sheetmusicplus.com

Share your thoughts

0 Comments found