Kamikazee

Kamikazee - Ert guitar tab

Title: Ert

Artist: Kamikazee

Album: Kamikazee

Instrument: 6 String Electric Guitar

Distortion/ Overdrive Pedal

Tabbed by: joshua "sallytot Kamote!" salazar

sally@putanginamo.com

josh0514@yahoo.com

Tuning: Standard (E A D G B E)

"kapa-kapa na ngangapa!"

you'll just be playing on the four right basic chord progressions

a lot of pick slide

and a difficult timing

Intro chords 1

(bagsakan)

D5 A5 B5 G5 D5 A5

E|--------------------------------------------------||

B|--------------------------------------------------||

G|----7~~~~--------------7~~~~----------------------||

D|----7~~~~-7-9~~~~-5x---7~~~~-7~~~~----------------||

A|----5~~~~-7-9~~~~-5x---5~~~~-7~~~~-x(pick slide)-||

E|----------5-7~~~~-3x---------5~~~~----------------||

or if have an effects use a jet flanger peddal

intro chords 2

D5 B5

E|-------------------------------------------------------------------||

B|-*-----------------------------------------------------------------||

G|----7-7-x-7-7-x--x7-7-x-7-7-x--------------------------------------||

D|----7-7-x-7-7-x--x7-7-x-7-7-x---x9-9-x-9-9-x--9-9-x-9-9-x----------||

A|-*--5-5-x-5-5-x--x5-5-x-5-5-x---x9-9-x-9-9-x--9-9-x-9-9-x----------||

E|--------------------------------x7-7-x-7-7-x--7-7-x-7-7-x----------||

p.m. +-----------------------------------------------------+

G5 A5

E|-------------------------------------------------------------------||

B|-----------------------------------------------------------------*-||

G|-------------------------------------------------------------------||

D|----5-5-x-5-5-x--x5-5-x---7-7-x-7-7-x--x7-7-x-7-7-x----------------||

A|----5-5-x-5-5-x--x5-5-x---7-7-x-7-7-x--x7-7-x-7-7-x--------------*-||

E|----3-3-x-3-3-x--x3-3-x---5-5-x-5-5-x--x5-5-x-5-5-x----------------||

p.m. +-----------------------------------------------------+

D5 B5 G5 A5

E|--------------------------------------------------------------------||

B|--------------------------------------------------------------------||

G|-7-7-7-7-7-7-7-7----------------------------------------------------||

D|-7-7-7-7-7-7-7-7--9-9-9-9-9-9-9-9--5-5-5-5-5-5-5-5--7-7-7-7-7-7-7-7-||

A|-5-5-5-5-5-5-5-5--9-9-9-9-9-9-9-9--5-5-5-5-5-5-5-5--7-7-7-7-7-7-7-7-||

E|------------------7-7-7-7-7-7-7-7--3-3-3-3-3-3-3-3--5-5-5-5-5-5-5-5-||

D5 B5 G5 A5

E|--------------------------------------------------------------------||

B|--------------------------------------------------------------------||

G|--7-7-7-7-xx7xx7----------------------------------------------------||

D|--7-7-7-7-xx7xx7--9-9-9-9-xx9xx9--5-5-5-5-xx5xx5--7-7-7-7-7-7-7-7---||

A|--5-5-5-5-xx5xx5--9-9-9-9-xx9xx9--5-5-5-5-xx5xx5--7-7-7-7-7-7-7-7---||

E|------------------7-7-7-7-xx7xx7--3-3-3-3-xx3xx3--5-5-5-5-5-5-5-5---||

intro chord progression 3 (reapeat 2x)

D5 B5 G5 A5

________________________________________________________________________

/E|--------------------------------------------------------------------||

|B|-*----------------------------------------------------------------*-||

|G|---7-7-7777-777-----------------------------------------------------||

|D|---7-7-7777-777--9-9-9999-999--5-5-5555-555--7-7-7777-777-----------||

|A|-*-5-5-5555-555--9-9-9999-999--5-5-5555-555--7-7-7777-777---------*-||

|E|-----------------7-7-7777-777--3-3-3333-333--5-5-5555-555-----------||

|

|

|E|--------------------------------------------------------------------||

|B|-*----------------------------------------------------------------*-||

|G|--------------------------------------------------------------------||

|D|--------4-5/7~-7777----4-5/7~-7777----4-5/7~(7)-77/9-977-5-445-575--||

|A|-*----57-------------57-------------57----------------------------*-||

E|--------------------------------------------------------------------||

-------------------------------------------------------------------------

verse 1 (chord progression is palm muted)

D5 B5

E|-------------------------------------------------------------------||

B|-*-----------------------------------------------------------------||

G|----7-7-x-7-7-x--x7-7-x-7-7-x--------------------------------------||

D|----7-7-x-7-7-x--x7-7-x-7-7-x---x9-9-x-9-9-x--9-9-x-9-9-x----------||

A|-*--5-5-x-5-5-x--x5-5-x-5-5-x---x9-9-x-9-9-x--9-9-x-9-9-x----------||

E|--------------------------------x7-7-x-7-7-x--7-7-x-7-7-x----------||

p.m. +-----------------------------------------------------+

G5 A5

E|-------------------------------------------------------------------||

B|-----------------------------------------------------------------*-||

G|-------------------------------------------------------------------||

D|----5-5-x-5-5-x--x5-5-x---7-7-x-7-7-x--x7-7-x-7-7-x----------------||

A|----5-5-x-5-5-x--x5-5-x---7-7-x-7-7-x--x7-7-x-7-7-x--------------*-||

E|----3-3-x-3-3-x--x3-3-x---5-5-x-5-5-x--x5-5-x-5-5-x----------------||

p.m. +-----------------------------------------------------+

D5 B5

E|-------------------------------------------------------------------||

B|-------------------------------------------------------------------||

G|----7-7-x-7-7-x--x7-7-x-7-7-x--------------------------------------||

D|----7-7-x-7-7-x--x7-7-x-7-7-x---x9-9-x-9-9-x--9-9-x-9-9-x----------||

A|----5-5-x-5-5-x--x5-5-x-5-5-x---x9-9-x-9-9-x--9-9-x-9-9-x----------||

E|--------------------------------x7-7-x-7-7-x--7-7-x-7-7-x----------||

p.m. +-----------------------------------------------------+

G5 A5

E|-------------------------------------------------------------------||

B|-------------------------------------------------------------------||

G|-------------------------------------------------------------------||

D|----5-5-x-5-5-x--x5-5-x---7-7-x-7-7-x--x7-7-x-7-7-7-7-7-7-7-7------||

A|----5-5-x-5-5-x--x5-5-x---7-7-x-7-7-x--x7-7-x-7-7-7-7-7-7-7-7------||

E|----3-3-x-3-3-x--x3-3-x---5-5-x-5-5-x--x5-5-x-5-5-5-5-5-5-5-5------||

p.m. +---------------------------------------------+

interlude

back to intro chord progression 3 (only once)

D5 B5 G5 A5

________________________________________________________________________

/E|--------------------------------------------------------------------||

|B|-*----------------------------------------------------------------*-||

|G|---7-7-7777-777-----------------------------------------------------||

|D|---7-7-7777-777--9-9-9999-999--5-5-5555-555--7-7-7777-777-x---------||

|A|-*-5-5-5555-555--9-9-9999-999--5-5-5555-555--7-7-7777-777-x-------*-||

|E|-----------------7-7-7777-777--3-3-3333-333--5-5-5555-555-x---------||

|

|

|E|--------------------------------------------------------------------||

|B|-*----------------------------------------------------------------*-||

|G|--------------------------------------------------------------------||

|D|--------4-5/7~-7777----4-5/7~-7777----4-5/7~(7)-77/9-977-5-445-575--||

|A|-*----57-------------57-------------57----------------------------*-||

E|--------------------------------------------------------------------||

-------------------------------------------------------------------------

verse 2

B5

E|-------------------------------------------------------------------||

B|-*-----------------------------------------------------------------||

G|-------------------------------------------------------------------||

D|--------------------------------x9-9-x-9-9-x--9-9-x-9-9-x----------||

A|-*------x(pick slide)----------x9-9-x-9-9-x--9-9-x-9-9-x----------||

E|--------------------------------x7-7-x-7-7-x--7-7-x-7-7-x----------||

p.m. +--------------------------+

G5 A5

E|-------------------------------------------------------------------||

B|-----------------------------------------------------------------*-||

G|-------------------------------------------------------------------||

D|----5-5-x-5-5-x--x5-5-x---7-7-x-7-7-x--x7-7-x-7-7-x----------------||

A|----5-5-x-5-5-x--x5-5-x---7-7-x-7-7-x--x7-7-x-7-7-x--------------*-||

E|----3-3-x-3-3-x--x3-3-x---5-5-x-5-5-x--x5-5-x-5-5-x----------------||

p.m. +-----------------------------------------------------+

D5 B5

E|-------------------------------------------------------------------||

B|-------------------------------------------------------------------||

G|----7-7-x-7-7-x--x7-7-x-7-7-x--------------------------------------||

D|----7-7-x-7-7-x--x7-7-x-7-7-x---x9-9-x-9-9-x--9-9-x-9-9-x----------||

A|----5-5-x-5-5-x--x5-5-x-5-5-x---x9-9-x-9-9-x--9-9-x-9-9-x----------||

E|--------------------------------x7-7-x-7-7-x--7-7-x-7-7-x----------||

p.m. +-----------------------------------------------------+

G5 A5

E|-------------------------------------------------------------------||

B|-------------------------------------------------------------------||

G|-------------------------------------------------------------------||

D|----5-5-x-5-5-x--x5-5-x---7-7-x-7-7-x--x7-7-xx---------------------||

A|----5-5-x-5-5-x--x5-5-x---7-7-x-7-7-x--x7-7-xx-(break!)------------||

E|----3-3-x-3-3-x--x3-3-x---5-5-x-5-5-x--x5-5-xx---------------------||

p.m. +---------------------------------------+

chorus

D5 B5 G5 A5

E|--------------------------------------------------------------------||

B|--------------------------------------------------------------------||

G|-7-7-7-7-7-7-7-7----------------------------------------------------||

D|-7-7-7-7-7-7-7-7--9-9-9-9-9-9-9-9--5-5-5-5-5-5-5-5--7-7-7-7-7-7-7-7-||

A|-5-5-5-5-5-5-5-5--9-9-9-9-9-9-9-9--5-5-5-5-5-5-5-5--7-7-7-7-7-7-7-7-||

E|------------------7-7-7-7-7-7-7-7--3-3-3-3-3-3-3-3--5-5-5-5-5-5-5-5-||

D5 B5 G5 A5

E|-----------------------------------------------------------------------||

B|-----------------------------------------------------------------------||

G|--7-7-7-7-xx7xx7-------------------------------------------------------||

D|--7-7-7-7-xx7xx7--9-9-9-9-xx9xx9--5-5-5-5-xx5xx5--7-7-7-7-7-7x---------||

A|--5-5-5-5-xx5xx5--9-9-9-9-xx9xx9--5-5-5-5-xx5xx5--7-7-7-7-7-7x-(break)-||

E|------------------7-7-7-7-xx7xx7--3-3-3-3-xx3xx3--5-5-5-5-5-5x---------||

interlude (listen to the song for to be able to play this palm muted chords)

D5 A5 G5 B5

E|-------------------------------------------------------------------||

B|-*-----------------------------------------------------------------||

G|--7-777-7-777------------------------------------------------------||

D|--7-777-7-777--7-777-7-777--5-555-5-555--9-999-9-999---------------||

A|-*5-555-5-555--7-777-7-777--5-555-5-555--9-999-9-999---------------||

E|---------------5-555-5-555--3-333-3-333--7-777-7-777---------------||

+---------------------------------------------------+

(heavy palm mute)

to be continue!

Get this song at:  amazon.com sheetmusicplus.com

Share your thoughts

0 Comments found