Kamikazee

Kamikazee - Doo Bidoo guitar tab

Song:Doo Bidoo

Album:kami nAPO muna

Artist:Apo Hiking Society

Tribute by Kamikazee

Date Tabbed:August,2006

Guitar Tabber:Ryan Manongdo

16/m/Montalban Rizal

webmaster at tabs-database.com.com(Friendster&YM)

09229015724(Sun Cell)

Listen to the song well,tune your gtr.properly,don't be too stupid and follow

the method.For the other gtr.tabbers that are stealing my tab,DEATH for all of you

gtr.Posers!!If you have any comments,questions,or suggestions just post a comment or

contact me.Please Rate for the accuracy of my tab...

Gtr.Legends:

. - PALM MUTING

x - DEAD STRNG

~ - LET IT RING

/ - SLIDE

b - BEND

Gtr.Tuning:Standard(Normal)

Intro prt.1:

e|---------------------|

B|---------------------|

G|---------------------|

D|-7~--7~--7~--77777---|

A|-7~--7~--7~--77777---|

E|-5~--5~--5~--55555---|

Intro prt.2 and Chorus:

Gtr.1:

e|--------------------------------------------------------------------------|

B|--------------------------------------------------------------------------|

G|-7-7-7-7--------------------7-7-7-7--7-7-7-7------------------------------|

D|-7-7-7-7--8-8-8-8--7-7-7-7--7-7-7-7--7-7-7-7--8-8-8-8--7-7-7-7--7-5-4-7---|

A|-5-5-5-5--8-8-8-8--7-7-7-7--5-5-5-5--5-5-5-5--8-8-8-8--7-7-7-7--7-5-4-7---|

E|----------6-6-6-6--5-5-5-5--------------------6-6-6-6--5-5-5-5--5-3-2-5---|

. . . . . . . . . . . . . . . . . . . . . . . . . . . . . . . .

Gtr.2:

e|--------------------|

B|--------------------|

G|-7-7-9-10-7-7-7-7---|

D|-x-x-x--x-x-x-x-x---|

A|-5-5-7--8-5-5-5-5---|

E|--------------------|

. . . . . . . .

Verse 1:No Gtr.

Pre-Chorus:

e|-------------------------------------------|

B|-------------------------------------------|

G|-7-7-7-7-----------------------------------| 2x

D|-7-7-7-7--8-8-8-8--10-10-10-10--3-3--7-7---|

A|-5-5-5-5--8-8-8-8--10-10-10-10--3-3--7-7---|

E|----------6-6-6-6---8--8--8--8--1-1--5-5---|

. . . . . . . . . . . . . . . .

Repeat Intro prt.1:

Repeat Intro prt.2:

Verse 2:No Gtr.

Repeat Pre-Chorus:

Repeat Intro prt.1:

Repeat Intro prt.2:

Bridge prt.1:

Gtr.1:

e|-----------------------------|

B|-----------------------------|

G|-7777~--7777~-7777~----------| 4x

D|-7777~--7777~-7777~--7-5-7---|

A|-5555~--5555~-5555~--7-5-7---|

E|---------------------5-3-5---|

xxx xxx xxx . . .

Gtr.2:

e|--------------------------------------------|

B|--------------------------------------------|

G|-7777~--7777~-7777~--14/15b-14/15b-14/15b---| 4x

D|-7777~--7777~-7777~-------------------------|

A|-5555~--5555~-5555~-------------------------|

E|--------------------------------------------|

xxx xxx xxx

Bridge prt.2:

Gtr.1

e|--------------------------------------------------------------------------|

B|--------------------------------------------------------------------------|

G|-7-7-7-7--------------------7-7-7-7--7-7-7-7------------------------------|

D|-7-7-7-7--8-8-8-8--7-7-7-7--7-7-7-7--7-7-7-7--8-8-8-8--7-7-7-7--7-5-4-8---|

A|-5-5-5-5--8-8-8-8--7-7-7-7--5-5-5-5--5-5-5-5--8-8-8-8--7-7-7-7--7-5-4-8---|

E|----------6-6-6-6--5-5-5-5--------------------6-6-6-6--5-5-5-5--5-3-2-6---|

. . . . . . . . . . . . . . . . . . . . . . . . . . . . . . . .

Gtr.2:

e|------------------------|

B|------------------------|

G|-7-9-10-7---5-9-10-7~---| 2x

D|-x-x--x-x---x-x--x-x----| Then

A|-5-7--8-5~--3-7--8-5~---|

E|------------------------|

e|-------------------------------------------------------------------------|

B|-------------------------------------------------------------------------|

G|-7-9-10-12121212-1414-15-17-15-1414--12-10-9-7-12-10-9-7--12-10-9-6-7~---|

D|-x-x--x-xxxxxxxx-xx12-xx-xx-xx-xxxx--xx--x-x-x-xx--x-x-x--xx--x-x-x-x----|

A|-5-7--8-10101010-1212-13-15-13-1212--10--8-7-5-10--8-7-5--10--8-7-4-5~---|

E|-------------------------------------------------------------------------|

Verse 3

e|----------------------------------------|

B|----------------------------------------|

G|----------------------------------------|

D|------------------------------5-7-5-7---|

A|-5555-0-5555------5555--------5-7-5-7---|

E|-------------5555------6666---3-5-3-5---|

.... .... .... .... ..... . . . .

Repeat Pre-Chorus:

e|----------------|

B|----------------|

G|-141414141414---|

D|-xxxxxxxxxxxx---|

A|-121212121212---|

E|----------------|

Repeat Intro prt.1 and 2:

Repeat Bridge prt.1:

Repeat Intro prt.1:

End...

Lyrics:

Kapag nag-iisa't kasama ang gitara

Basta't dumarating ang kanta

Awiting maaari rin kung may kasama

Tambol mo ay butas na lata

Sabayan ang sipol ang bawat pasada

Huminga ng malalim at sabay ang buga

Kapag buo na't handa na ang lahat

Sabay-sabay ang pasok sa bagsak ng paa

Heto na, heto na, heto na-hah-hah...

Chorus 1

Doo bidoo bidoo, bidoo bidoo

Doo bidoo bidoo, bidoo bidoo

Doo bidoo bidoo, bidoo bidoo bidoo-wah.

Mahirap gumawa ng kantang makata

Makulay na tugtugin at pananalita

At kapuna-puna na parang dambuhala

Mga boses na nagpapababa

At meron din namang nagpapaboses bata

Matataas ang tono, tinig ay mahaba

Binubulong sa hangin ang bawat salita (haah)

Kapag narinig mo ay nakakatuwa

Heto na, heto na, heto na-hah-hah...

Repeat Chorus 1

I would like to greet My friends in our school NSDAPS San Mateo Rizal,Red

Records,My friends in Montalban,Magella,My Friends in YM and Friendster,my band-

mates and many more...

Padre Garrote: Extra:

Dino Testa:Vocals Andrei Frondoso:Xylophone,Triangles,Flute and Tamborine

Edy Capistrano:Gtr.1 Mike Alvez:Sub-Guitar

Jiro Uezono:Gtr.2

Ryan Manongdo:Bass Ei,This is my new secret alternate e-mail add

Aeroll Cayetano:Drums webmaster at tabs-database.com.com

Added by tabs-database.com and our distinguished partners

Get this song at:  amazon.com sheetmusicplus.com

Share your thoughts

0 Comments found