Kamikazee

Kamikazee - Do Bidoo guitar tab

-------------------------------------------------------------------------------

Doo Bidoo by Kamikazee

-------------------------------------------------------------------------------

Song: Doo Bidoo

Band: Kamikazee

Date Tabbed: September 9 2006

Tabbed by: Jacob Ortega (^_^)

Guitar Legends:

b - BEND

~ - LET IT RING

. - PALM MUTING

x - DEAD STRNG

/ - SLIDE

Guitar Tuning: Standard

Intro:

Chorus 1:

Guitar 1

e|-----------------------------------------------|

B|-----------------------------------------------|

G|-----------------------------------------------|

D|-7-----------7------------7--------7-7-7-7-7-7-|

A|-7-----------7------------7--------7-7-7-7-7-7-|

E|-5-----------5------------5--------5-5-5-5-5-5-|

Heto na, heto na, heto na, laaaaaaaaa

Chorus 2:

Guitar 1

e|---------------------------------------------------------------------|

B|---------------------------------------------------------------------|

G|-7-7-7-7-7-7-7-7-7---------------------------------7-7-7-7-7-7-7-7-7-|

D|-7-7-7-7-7-7-7-7-7-8-8-8-8-8-8-8-8-7-7-7-7-7-7-7-7-7-7-7-7-7-7-7-7-7-|

A|-5-5-5-5-5-5-5-5-5-8-8-8-8-8-8-8-8-7-7-7-7-7-7-7-7-5-5-5-5-5-5-5-5-5-|

E|-------------------6-6-6-6-6-6-6-6-5-5-5-5-5-5-5-5-------------------|

Do bidoo bidoo Bidoo Bidoo Do bidoo bidoo Bidoo Bidoo

Guitar 2

e|---------------------------------------------------------------------|

B|---------------------------------------------------------------------|

G|-7-7-9-9-11-11-9-9-7-7-9-9-7-7-6-6-7-7-9-9-11-11-9-9-7-7-9-9-7-7-6-6-|

D|-7-7-9-9-11-11-9-9-7-7-9-9-7-7-6-6-7-7-9-9-11-11-9-9-7-7-9-9-7-7-6-6-|

A|-5-5-7-7--9--9-7-7-5-5-7-7-5-5-4-4-5-5-7-7--9--9-7-7-5-5-7-7-5-5-4-4-|

E|---------------------------------------------------------------------|

Guitar 1

e|---------------------------------------------------------------------|

B|---------------------------------------------------------------------|

G|-7-7-7-7-7-7-7-7-7---------------------------------7-7-7-7-7-7-7-7-7-|

D|-7-7-7-7-7-7-7-7-7-8-8-8-8-8-8-8-8-7-7-7-7-7-7-7-7-7-7-7-7-7-7-7-7-7-|

A|-5-5-5-5-5-5-5-5-5-8-8-8-8-8-8-8-8-7-7-7-7-7-7-7-7-5-5-5-5-5-5-5-5-5-|

E|-------------------6-6-6-6-6-6-6-6-5-5-5-5-5-5-5-5-------------------|

Do bidoo bidoo, Bidoo Bidoo, Do bidoo bidoo, Bidoo Bidoo Bidoo wahhhhh

Guitar 2

e|---------------------------------------------------------------------|

B|---------------------------------------------------------------------|

G|-7-7-9-9-11-11-9-9-7-7-9-9-7-7-6-6-7-7-9-9-11-11-9-9-7-7-9-9-7-7-6-6-|

D|-7-7-9-9-11-11-9-9-7-7-9-9-7-7-6-6-7-7-9-9-11-11-9-9-7-7-9-9-7-7-6-6-|

A|-5-5-7-7--9--9-7-7-5-5-7-7-5-5-4-4-5-5-7-7--9--9-7-7-5-5-7-7-5-5-4-4-|

E|---------------------------------------------------------------------|

Verse :

Guitar 1

e|-----------------------------------------------------------------|

B|-----------------------------------------------------------------|

G|-7-7-7-7-7-7-7-7---------------------------------7-7-7-7-7-7-7-7-|

D|-7-7-7-7-7-7-7-7-8-8-8-8-8-8-8-8-7-7-7-7-7-7-7-7-7-7-7-7-7-7-7-7-|

A|-5-5-5-5-5-5-5-5-8-8-8-8-8-8-8-8-7-7-7-7-7-7-7-7-5-5-5-5-5-5-5-5-|

E|-----------------6-6-6-6-6-6-6-6-5-5-5-5-5-5-5-5-----------------|

Kapag nag iisa't kasama ang gitara, basta't dumarating ang kanta

e|-----------------------------------------------------------------|

B|-----------------------------------------------------------------|

G|-7-7-7-7-7-7-7-7---------------------------------7-7-7-7-7-7-7-7-|

D|-7-7-7-7-7-7-7-7-8-8-8-8-8-8-8-8-7-7-7-7-7-7-7-7-7-7-7-7-7-7-7-7-|

A|-5-5-5-5-5-5-5-5-8-8-8-8-8-8-8-8-7-7-7-7-7-7-7-7-5-5-5-5-5-5-5-5-|

E|-----------------6-6-6-6-6-6-6-6-5-5-5-5-5-5-5-5-----------------|

Awiting maaari rin kung may kasama, tambol mo ay butas na lata

e|-----------------------------------------------------------------|

B|-----------------------------------------------------------------|

G|-7-7-7-7-7-7-7-7---------------------------------7-7-7-7-7-7-7-7-|

D|-7-7-7-7-7-7-7-7-8-8-8-8-8-8-8-8-7-7-7-7-7-7-7-7-7-7-7-7-7-7-7-7-|

A|-5-5-5-5-5-5-5-5-8-8-8-8-8-8-8-8-7-7-7-7-7-7-7-7-5-5-5-5-5-5-5-5-|

E|-----------------6-6-6-6-6-6-6-6-5-5-5-5-5-5-5-5-----------------|

Sabayan ng sipol ang bawat pasada, huminga ng malalim at sabay ang buga

e|-----------------------------------------------------------------|

B|-----------------------------------------------------------------|

G|-7-7-7-7-7-7-7-7---------------------------------7-7-7-7-7-7-7-7-|

D|-7-7-7-7-7-7-7-7-8-8-8-8-8-8-8-8-7-7-7-7-7-7-7-7-7-7-7-7-7-7-7-7-|

A|-5-5-5-5-5-5-5-5-8-8-8-8-8-8-8-8-7-7-7-7-7-7-7-7-5-5-5-5-5-5-5-5-|

E|-----------------6-6-6-6-6-6-6-6-5-5-5-5-5-5-5-5-----------------|

Kapag buo na't handa na ang lahat, sabay-sabay ang pasok sa bagsak ng paa

Chorus 1:

Guitar 1

e|----------------------------------------------|

B|----------------------------------------------|

G|----------------------------------------------|

D|-7-----------7------------7-------7-7-7-7-7-7-|

A|-7-----------7------------7-------7-7-7-7-7-7-|

E|-5-----------5------------5-------5-5-5-5-5-5-|

Heto na, heto na, heto na-hah-hah

Chorus 2:

Guitar 1

e|---------------------------------------------------------------------|

B|---------------------------------------------------------------------|

G|-7-7-7-7-7-7-7-7-7---------------------------------7-7-7-7-7-7-7-7-7-|

D|-7-7-7-7-7-7-7-7-7-8-8-8-8-8-8-8-8-7-7-7-7-7-7-7-7-7-7-7-7-7-7-7-7-7-|

A|-5-5-5-5-5-5-5-5-5-8-8-8-8-8-8-8-8-7-7-7-7-7-7-7-7-5-5-5-5-5-5-5-5-5-|

E|-------------------6-6-6-6-6-6-6-6-5-5-5-5-5-5-5-5-------------------|

Do bidoo bidoo, Bidoo Bidoo, Do bidoo bidoo, Bidoo Bidoo

Guitar 2

e|---------------------------------------------------------------------|

B|---------------------------------------------------------------------|

G|-7-7-9-9-11-11-9-9-7-7-9-9-7-7-6-6-7-7-9-9-11-11-9-9-7-7-9-9-7-7-6-6-|

D|-7-7-9-9-11-11-9-9-7-7-9-9-7-7-6-6-7-7-9-9-11-11-9-9-7-7-9-9-7-7-6-6-|

A|-5-5-7-7--9--9-7-7-5-5-7-7-5-5-4-4-5-5-7-7--9--9-7-7-5-5-7-7-5-5-4-4-|

E|---------------------------------------------------------------------|

Guitar 1

e|---------------------------------------------------------------------|

B|---------------------------------------------------------------------|

G|-7-7-7-7-7-7-7-7-7---------------------------------7-7-7-7-7-7-7-7-7-|

D|-7-7-7-7-7-7-7-7-7-8-8-8-8-8-8-8-8-7-7-7-7-7-7-7-7-7-7-7-7-7-7-7-7-7-|

A|-5-5-5-5-5-5-5-5-5-8-8-8-8-8-8-8-8-7-7-7-7-7-7-7-7-5-5-5-5-5-5-5-5-5-|

E|-------------------6-6-6-6-6-6-6-6-5-5-5-5-5-5-5-5-------------------|

Do bidoo bidoo, Bidoo Bidoo, Do bidoo bidoo, Bidoo Bidoo Bidoo wahhhhh

Guitar 2

e|---------------------------------------------------------------------|

B|---------------------------------------------------------------------|

G|-7-7-9-9-11-11-9-9-7-7-9-9-7-7-6-6-7-7-9-9-11-11-9-9-7-7-9-9-7-7-6-6-|

D|-7-7-9-9-11-11-9-9-7-7-9-9-7-7-6-6-7-7-9-9-11-11-9-9-7-7-9-9-7-7-6-6-|

A|-5-5-7-7--9--9-7-7-5-5-7-7-5-5-4-4-5-5-7-7--9--9-7-7-5-5-7-7-5-5-4-4-|

E|---------------------------------------------------------------------|

Verse 2:

Guitar 1

e|-----------------------------------------------------------------|

B|-----------------------------------------------------------------|

G|-7-7-7-7-7-7-7-7---------------------------------7-7-7-7-7-7-7-7-|

D|-7-7-7-7-7-7-7-7-8-8-8-8-8-8-8-8-7-7-7-7-7-7-7-7-7-7-7-7-7-7-7-7-|

A|-5-5-5-5-5-5-5-5-8-8-8-8-8-8-8-8-7-7-7-7-7-7-7-7-5-5-5-5-5-5-5-5-|

E|-----------------6-6-6-6-6-6-6-6-5-5-5-5-5-5-5-5-----------------|

Mahirap gumawa ng kantang makata, makulay na tugtugin at pananalita

e|-----------------------------------------------------------------|

B|-----------------------------------------------------------------|

G|-7-7-7-7-7-7-7-7---------------------------------7-7-7-7-7-7-7-7-|

D|-7-7-7-7-7-7-7-7-8-8-8-8-8-8-8-8-7-7-7-7-7-7-7-7-7-7-7-7-7-7-7-7-|

A|-5-5-5-5-5-5-5-5-8-8-8-8-8-8-8-8-7-7-7-7-7-7-7-7-5-5-5-5-5-5-5-5-|

E|-----------------6-6-6-6-6-6-6-6-5-5-5-5-5-5-5-5-----------------|

At kapuna-puna na parang dambuhala, mga boses na nagpapababa

e|-----------------------------------------------------------------|

B|-----------------------------------------------------------------|

G|-7-7-7-7-7-7-7-7---------------------------------7-7-7-7-7-7-7-7-|

D|-7-7-7-7-7-7-7-7-8-8-8-8-8-8-8-8-7-7-7-7-7-7-7-7-7-7-7-7-7-7-7-7-|

A|-5-5-5-5-5-5-5-5-8-8-8-8-8-8-8-8-7-7-7-7-7-7-7-7-5-5-5-5-5-5-5-5-|

E|-----------------6-6-6-6-6-6-6-6-5-5-5-5-5-5-5-5-----------------|

At meron din namang nagpapaboses bata, Matataas ang tono tinig ay mahaba

e|-----------------------------------------------------------------|

B|-----------------------------------------------------------------|

G|-7-7-7-7-7-7-7-7---------------------------------7-7-7-7-7-7-7-7-|

D|-7-7-7-7-7-7-7-7-8-8-8-8-8-8-8-8-7-7-7-7-7-7-7-7-7-7-7-7-7-7-7-7-|

A|-5-5-5-5-5-5-5-5-8-8-8-8-8-8-8-8-7-7-7-7-7-7-7-7-5-5-5-5-5-5-5-5-|

E|-----------------6-6-6-6-6-6-6-6-5-5-5-5-5-5-5-5-----------------|

Binubulong sa hangin ang bawat salita, Kapag narinig mo ay nakakatuwa

Chorus 1:

Guitar 1

e|-----------------------------------------------|

B|-----------------------------------------------|

G|-----------------------------------------------|

D|-7-----------7------------7--------7-7-7-7-7-7-|

A|-7-----------7------------7--------7-7-7-7-7-7-|

E|-5-----------5------------5--------5-5-5-5-5-5-|

Heto na, heto na, heto na, laaaaaaaaa

Chorus 2:

Guitar 1

e|---------------------------------------------------------------------|

B|---------------------------------------------------------------------|

G|-7-7-7-7-7-7-7-7-7---------------------------------7-7-7-7-7-7-7-7-7-|

D|-7-7-7-7-7-7-7-7-7-8-8-8-8-8-8-8-8-7-7-7-7-7-7-7-7-7-7-7-7-7-7-7-7-7-|

A|-5-5-5-5-5-5-5-5-5-8-8-8-8-8-8-8-8-7-7-7-7-7-7-7-7-5-5-5-5-5-5-5-5-5-|

E|-------------------6-6-6-6-6-6-6-6-5-5-5-5-5-5-5-5-------------------|

Do bidoo bidoo Bidoo Bidoo Do bidoo bidoo Bidoo Bidoo

Guitar 2

e|---------------------------------------------------------------------|

B|---------------------------------------------------------------------|

G|-7-7-9-9-11-11-9-9-7-7-9-9-7-7-6-6-7-7-9-9-11-11-9-9-7-7-9-9-7-7-6-6-|

D|-7-7-9-9-11-11-9-9-7-7-9-9-7-7-6-6-7-7-9-9-11-11-9-9-7-7-9-9-7-7-6-6-|

A|-5-5-7-7--9--9-7-7-5-5-7-7-5-5-4-4-5-5-7-7--9--9-7-7-5-5-7-7-5-5-4-4-|

E|---------------------------------------------------------------------|

Guitar 1

e|---------------------------------------------------------------------|

B|---------------------------------------------------------------------|

G|-7-7-7-7-7-7-7-7-7---------------------------------7-7-7-7-7-7-7-7-7-|

D|-7-7-7-7-7-7-7-7-7-8-8-8-8-8-8-8-8-7-7-7-7-7-7-7-7-7-7-7-7-7-7-7-7-7-|

A|-5-5-5-5-5-5-5-5-5-8-8-8-8-8-8-8-8-7-7-7-7-7-7-7-7-5-5-5-5-5-5-5-5-5-|

E|-------------------6-6-6-6-6-6-6-6-5-5-5-5-5-5-5-5-------------------|

Do bidoo bidoo, Bidoo Bidoo, Do bidoo bidoo, Bidoo Bidoo Bidoo wahhhhh

Guitar 2

e|---------------------------------------------------------------------|

B|---------------------------------------------------------------------|

G|-7-7-9-9-11-11-9-9-7-7-9-9-7-7-6-6-7-7-9-9-11-11-9-9-7-7-9-9-7-7-6-6-|

D|-7-7-9-9-11-11-9-9-7-7-9-9-7-7-6-6-7-7-9-9-11-11-9-9-7-7-9-9-7-7-6-6-|

A|-5-5-7-7--9--9-7-7-5-5-7-7-5-5-4-4-5-5-7-7--9--9-7-7-5-5-7-7-5-5-4-4-|

E|---------------------------------------------------------------------|

Bridge:

Guitar 1

e|------------------------------|

B|------------------------------|

G|-7777---7777---7777-----------| 4x

D|-7777---7777---7777---7-5-7---|

A|-5555---5555---5555---7-5-7---|

E|----------------------5-3-5---|

Guitar 2

e|--------------------------------------------|

B|--------------------------------------------|

G|-7777---7777---7777--14/15b-14/15b-14/15b---| 4x

D|-7777---7777---7777-------------------------|

A|-5555---5555---5555-------------------------|

E|--------------------------------------------|

Bridge:

Guitar 1

e|-----------------------------------------------------------|

B|-----------------------------------------------------------|

G|-7-7-7-7-9-9-11-11-------------6-6-6-6-7-7-9-9-7-7-7-7-7-7-|

D|-7-7-7-7-9-9-11-11-9-9-9-9-9-9-6-6-6-6-7-7-9-9-7-7-7-7-7-7-|

A|-5-5-5-5-7-7- 9- 9-9-9-9-9-9-9-4-4-4-4-5-5-7-7-5-5-5-5-5-5-|

E|-------------------7-7-7-7-7-7-----------------------------|

Ah do bidoo bi, Ah do bidoo bi

Guitar 2

e|-----------------------------------------------------------|

B|-----------------------------------------------------------|

G|-7-7-7-7-9-9-11-11-------------6-6-6-6-7-7-9-9-7-7-7-7-7-7-|

D|-x-x-x-x-x-x- x- x-9-9-9-9-9-9-x-x-x-x-x-x-x-x-x-x-x-x-x-x-|

A|-5-5-5-5-7-7- 9- 9-x-x-x-x-x-x-4-4-4-4-5-5-7-7-5-5-5-5-5-5-|

E|-------------------7-7-7-7-7-7-----------------------------|

Guitar 1

e|-----------------------------------------------------------|

B|-----------------------------------------------------------|

G|-7-7-7-7-9-9-11-11-------------6-6-6-6-7-7-9-9-7-7-7-7-7-7-|

D|-7-7-7-7-9-9-11-11-9-9-9-9-9-9-6-6-6-6-7-7-9-9-7-7-7-7-7-7-|

A|-5-5-5-5-7-7- 9- 9-9-9-9-9-9-9-4-4-4-4-5-5-7-7-5-5-5-5-5-5-|

E|-------------------7-7-7-7-7-7-----------------------------|

Ah do bidoo bi-----, Ah do bidoo bi

Guitar 2

e|-----------------------------------------------------------|

B|-----------------------------------------------------------|

G|-7-7-7-7-9-9-11-11-------------6-6-6-6-7-7-9-9-7-7-7-7-7-7-|

D|-7-7-7-7-9-9-11-11-9-9-9-9-9-9-6-6-6-6-7-7-9-9-7-7-7-7-7-7-|

A|-5-5-5-5-7-7- 9- 9-9-9-9-9-9-9-4-4-4-4-5-5-7-7-5-5-5-5-5-5-|

E|-------------------7-7-7-7-7-7-----------------------------|

Bridge:

Guitar 2

e|---------------------------------------------------|

B|---------------------------------------------------|

G|-7-7-7-7-7-7-9-9-9-9-11-11-11-11-12-12-12-12-12-12-|

D|-7-7-7-7-7-7-9-9-9-9-11-11-11-11-12-12-12-12-12-12-|

A|-5-5-5-5-5-5-7-7-7-7--9--9--9--9-10-10-10-10-10-10-|

E|---------------------------------------------------|

Hey !!

e|-------------------------------------------------------------------|

B|-------------------------------------------------------------------|

G|-14-14-14-14-14-14-15-15-15-15-17-17-17-17-15-15-15-15-14-14-14-14-|

D|-14-14-14-14-14-14-15-15-15-15-17-17-17-17-15-15-15-15-14-14-14-14-|

A|-12-12-12-12-12-12-13-13-13-13-15-15-15-15-13-13-13-13-12-12-12-12-|

E|-------------------------------------------------------------------|

Hey !!

e|---------------------------------------------|

B|---------------------------------------------|

G|-12-11-9-7-12-11-9-7-12-11-9-7-7-7-7-7-7-7-7-|

D|-12-11-9-7-12-11-9-7-12-11-9-7-7-7-7-7-7-7-7-|

A|-10--9-7-5-10--9-7-5-10--9-7-5-5-5-5-5-5-5-5-|

E|---------------------------------------------|

Hey !! Hey !!

Adlib:

Guitar 2

e|---------------------------|

B|---------------------------|

G|---------------------------|

D|---------------------------|

A|-5-5-5-5-5-5-5-5-5-5-5-5-0-|

E|---------------------------|

e|-----------------------------------------------------------------|

B|-----------------------------------------------------------------|

G|-----------------------------------------------------------------|

D|-----------------------------------------------------------------|

A|-5-5-5-5-5-5-5-5---------------------------------5-5-5-5-5-5-5-5-|

E|-----------------6-6-6-6-6-6-6-6-5-5-5-5-5-5-5-5-----------------|

Hindi naman kailangan boses mo'y maganda, basta't may konting tono madaling makanta

e|-----------------------------------------------------------------|

B|-----------------------------------------------------------------|

G|-----------------------------------------------------------------|

D|-----------------------------------------------------------------|

A|-5-5-5-5-5-5-5-5---------------------------------5-5-5-5-5-5-5-5-|

E|-----------------6-6-6-6-6-6-6-6-5-5-5-5-5-5-5-5-----------------|

Kung medyo sintunado ay hayaan mo na, ang nais lang ng tao ay ang konting saya

e|-----------------------------------------------------------------|

B|-----------------------------------------------------------------|

G|-----------------------------------------------------------------|

D|-7-7-7-7-7-7-7-7---------------------------------7-7-7-7-7-7-7-7-|

A|-5-5-5-5-5-5-5-5-8-8-8-8-8-8-8-8-7-7-7-7-7-7-7-7-5-5-5-5-5-5-5-5-|

E|-----------------6-6-6-6-6-6-6-6-5-5-5-5-5-5-5-5-----------------|

Ihanda ang tropa at tambol na lata, kaskasin mo nang mabuti ang dalang gitara

e|-----------------------------------------------------------------|

B|-----------------------------------------------------------------|

G|-----------------------------------------------------------------|

D|-7-7-7-7-7-7-7-7---------------------------------7-7-7-7-7-7-7-7-|

A|-5-5-5-5-5-5-5-5-8-8-8-8-8-8-8-8-7-7-7-7-7-7-7-7-5-5-5-5-5-5-5-5-|

E|-----------------6-6-6-6-6-6-6-6-5-5-5-5-5-5-5-5-----------------|

Kapag buo na't handa na and lahat huminga ka ng malalim at narito na

Guitar 1

e|-----------------------------------------------|

B|-----------------------------------------------|

G|-----------------------------------------------|

D|-7-----------7------------7--------7-7-7-7-7-7-|

A|-7-----------7------------7--------7-7-7-7-7-7-|

E|-5-----------5------------5--------5-5-5-5-5-5-|

Heto na, heto na, heto na, laaaaaaaaa DO-BI!!!

mahaba na to!!!!!!!!

Chorus 2:

Guitar 1

e|---------------------------------------------------------------------|

B|---------------------------------------------------------------------|

G|-7-7-7-7-7-7-7-7-7---------------------------------7-7-7-7-7-7-7-7-7-|

D|-7-7-7-7-7-7-7-7-7-8-8-8-8-8-8-8-8-7-7-7-7-7-7-7-7-7-7-7-7-7-7-7-7-7-|

A|-5-5-5-5-5-5-5-5-5-8-8-8-8-8-8-8-8-7-7-7-7-7-7-7-7-5-5-5-5-5-5-5-5-5-|

E|-------------------6-6-6-6-6-6-6-6-5-5-5-5-5-5-5-5-------------------|

Do bidoo bidoo Bidoo Bidoo Do bidoo bidoo Bidoo Bidoo

Guitar 2

e|---------------------------------------------------------------------|

B|---------------------------------------------------------------------|

G|-7-7-9-9-11-11-9-9-7-7-9-9-7-7-6-6-7-7-9-9-11-11-9-9-7-7-9-9-7-7-6-6-|

D|-7-7-9-9-11-11-9-9-7-7-9-9-7-7-6-6-7-7-9-9-11-11-9-9-7-7-9-9-7-7-6-6-|

A|-5-5-7-7--9--9-7-7-5-5-7-7-5-5-4-4-5-5-7-7--9--9-7-7-5-5-7-7-5-5-4-4-|

E|---------------------------------------------------------------------|

Guitar 1

e|---------------------------------------------------------------------|

B|---------------------------------------------------------------------|

G|-7-7-7-7-7-7-7-7-7---------------------------------7-7-7-7-7-7-7-7-7-|

D|-7-7-7-7-7-7-7-7-7-8-8-8-8-8-8-8-8-7-7-7-7-7-7-7-7-7-7-7-7-7-7-7-7-7-|

A|-5-5-5-5-5-5-5-5-5-8-8-8-8-8-8-8-8-7-7-7-7-7-7-7-7-5-5-5-5-5-5-5-5-5-|

E|-------------------6-6-6-6-6-6-6-6-5-5-5-5-5-5-5-5-------------------|

Do bidoo bidoo, Bidoo Bidoo, Do bidoo bidoo, Bidoo Bidoo Bidoo wahhhhh

Guitar 2

e|---------------------------------------------------------------------|

B|---------------------------------------------------------------------|

G|-7-7-9-9-11-11-9-9-7-7-9-9-7-7-6-6-7-7-9-9-11-11-9-9-7-7-9-9-7-7-6-6-|

D|-7-7-9-9-11-11-9-9-7-7-9-9-7-7-6-6-7-7-9-9-11-11-9-9-7-7-9-9-7-7-6-6-|

A|-5-5-7-7--9--9-7-7-5-5-7-7-5-5-4-4-5-5-7-7--9--9-7-7-5-5-7-7-5-5-4-4-|

E|---------------------------------------------------------------------|

Outro:

Guitar 2

e|--------------------------------------------|

B|--------------------------------------------|

G|-7777---7777---7777--14/15b-14/15b-14/15b---| 4x

D|-7777---7777---7777-------------------------|

A|-5555---5555---5555-------------------------|

E|--------------------------------------------|

Guitar 1

e|-----------------------------------------------|

B|-----------------------------------------------|

G|-----------------------------------------------|

D|-7-----------7------------7--------7-7-7-7-7-7-|

A|-7-----------7------------7--------7-7-7-7-7-7-|

E|-5-----------5------------5--------5-5-5-5-5-5-|

Heto na, heto na, heto na, laaaaaaaaa (Break)

hehe..kakatamad tlga gumawa ng tabs...mga 2 hours...sana tanggapin...hmm dedicated to sa

ng kaibigan kong emo-emuhan...hehe joke lng...sa mga klasm8 kong laging

natutulog at sa mga teacher naming masisipag magturo...hehe ganda tlga ng

am jacob from taytay, rizal tga siena 2-E at un lng masasabi koAdded by tabs-database.com and our distinguished partners

Get this song at:  amazon.com sheetmusicplus.com

Share your thoughts

0 Comments found