Kamikazee

Kamikazee - Discoskwela guitar tab

\\Song:Discoskwela

Album:Maharot

Artist:Kamikazee

Date:June,2006

Tabber:Ryan Manongdo

16/m/Montalban Rizal

webmaster at tabs-database.com.com(Friendster&YM)

09229015724(Sun Cell)

Notes:Listen to the song well,tune your gtr.properly,don't be too stupid and

follow the method.For your any comments,questions or suggestions,just

Post a Comment,PM,E-mail,Friendster Message or you can text me.Please

Rate for the accuration of my tab.

Gtr.Legends:

/\\ - SLIDE

~ - LET IT RING

. - PALM MUTING

x - DEAD STRING

Gtr.Tuning:Standard(Normal)

Intro prt.1:

e|---------------------------------- --------------|

B|---------------------------------- 2x --------------|

G|----------------------2/4\\2/4\\2--- Then --------------|

D|-444-------------444-------------- --7777-9999---|

A|-222--1/2\\1/2\\1--222-------------- --5555-7777---|

E|---------------------------------- --------------|

Intro prt.2:

Listen well in this prt.

e|------------------------------------------------------------------------|

B|------------------------------------------------------------------------|

G|------------------------------------------------------------------------|

D|-44-3-4--7777-9999---44-3-4--3-44-3-4---44-3-4--777-999--3-44-3-4--4~---|

A|-22-1-2--5555-7777---22-1-2--1-22-1-2---22-1-2--555-777--1-22-1-2--4~---|

E|-------------------------------------------------------------------2~---|

Verse 1:

Pareho bang kaliwa ang mga paa... Huwah-huwah....

e|-------------------------------- -------------------------|

B|-------------------------------- -------------------------|

G|-------------------------------- Then -------------------------|

D|-3-4-3-4---3-4-3-4--7777--9999-- --7777--9999--11111111---|

A|-1-2-1-2---1-2-1-2--5555--7777-- --5555--7777---9-9-9-9---|

E|-------------------------------- -------------------------|

.... .... . . . .

Chorus 1:Play Intro prt.2

Yeah,,may marmle na class room at red na carpet...

Verse 2:Play Verse 1

Pati ba kembot mo ay kulang pah...

Chorus 2:Play Intro prt.2

Yeah,ang mga nag-tuturo dito...

Bridge prt.1

Gtr.1:Pedal on(PEDAL WAH-WAH) Gtr.2 Enters:

e|-------------------------- ----------------------|

B|-------------------------- ----------------------|

G|-------------------------- ----------------------|

D|--xxxxxxxxxxxxxxxxxxxxxx-- --7~---7~---7~---7~---|

A|--xxxxxxxxxxxxxxxxxxxxxx-- --7~---7~---7~---7~---|

E|--xxxxxxxxxxxxxxxxxxxxxx-- --5~---5~---5~---5~---|

Bridge prt.2:(Strum up and down)

e|-------------------------------------------|

B|-------------------------------------------| Repeat

G|-------------------------------------------| 4x

D|-------------------------------------------|

A|----------------------------------666666---|

E|-66666--44444-33333---66666-88888----------|

Repeat Intro prt.1:

Chorus 3:Play intro prt.2

Last Chords:

e|---------|

B|---------|

G|---------|

D|-4-3-4---|

A|-2-1-2---|

E|---------|

I would like to greet My friends in our school NSDAPS San Mateo Rizal,My

friends in Montalban,My Band Mates,My Friends in YM and Friendster,My Re-

latives and my luv;********!!You know who you are;-p

Padre Garrote: Extra:

Dino Testa:Vocals Andrei Frondoso:Xylophone,Triangles,Flute and Tamborine

Edy Capistrano:Gtr.1 Mike Alvez:Sub-Guitar

Jiro Uezono:Gtr.2

Ryan Manongdo:Bass Ei,This is my new alternate secret e-mail address!!

Aeroll Cayetano:Drums webmaster at tabs-database.com.com

Added by tabs-database.com and our distinguished partners

Get this song at:  amazon.com sheetmusicplus.com

Share your thoughts

0 Comments found