Kamikazee

Kamikazee - Chinelas guitar tab

Title: Chinelas

Artist: Kamikazee

Album: Kamikazee

Transcribed by: The Spikekikay

Tuning: Standard (E A D G B E)

Legend: - - palm mute

h - hammer on

~ - let ring

Intro:

Guitar 1 Guitar 2

----------------- ----------------------------------|

----------------- ----------------------------------|

----------------- ----------------------------------|

-----------------4x ----------------------------------|4x

-0-1-2-0-2-3-0-0- ----------------------------------|

-0-1-2-0-2-3-0-0- -0-1h2-0-2h3-0-1h2-0-2h3-0-3-4-3--|

- - - - - - - - - - - -

*note - the riffs look like a drop d chord but it isn't

it is an inverted chord

Guitar 1 & 2

----------------------------------|

----------------------------------|

----------------------------------|

----------------------------------|

-0-1h2-0-2h3-0-1h2-0-2h3-0-3-4-3--|

-0-1h2-0-2h3-0-1h2-0-2h3-0-3-4-3--|

- - - - - - - -

Verse:

Nasan na kaya...

-------------------------------|

---------2~~0~~2~~0~~2~~0~~2~~-|

---------0~~0~~0~~0~~0~~0~~0~~-|

-2~~~~---5~~4~~5~~4~~5~~4~~5~~-|

-2~~~~---3~~2~~3~~2~~3~~2~~3~~-|

-0~~~~-------------------------|

Wala sa kwarto...

-----------------------------------------------------------------------------------|

-----0-------0-----------3-------3---------0-------0-----------3-------------------|

---0---0---0---0-------0---0---0---0-----0---0---0---0-------0---0---0-------------|

-4-------4-------4-4/5-------5---------4-------4-------4-4/5-------5------2-2-2-2--|

--------------------------------------------------------------------------2-2-2-2--|

--------------------------------------------------------------------------0-0-0-0--|

Chorus:

Nasan na Chinelas ko!!!

----------------------------------|

----------------------------------|

----------------------------------|

----------------------------------|4x

-0-1h2-0-2h3-0-1h2-0-2h3-0-3-4-3--|

-0-1h2-0-2h3-0-1h2-0-2h3-0-3-4-3--|

Chinelas ko!!! Chinelas ko!!!

----------------------------------|

----------------------------------|

----------------------------------|

----------------------------------|4x

-0-1-2-0-2-3-0-1-2-0-2-3-0-3-4-3--|

-0-1-2-0-2-3-0-1-2-0-2-3-0-3-4-3--|

- - - - - - - - - - - - - - - -

verse

riff

chorus

Bridge:

Nasan na...

--------------|

--------------|

--------7~~~~-|6x

-4~~~~--7~~~~

-4~~~~--5~~~~

-2~~~~-------

Repeat Chorus

Have a Fun!

Im Dids nga pala!

Good Luck!

Get this song at:  amazon.com sheetmusicplus.com

Share your thoughts

0 Comments found