Kamikazee

Kamikazee - Chicksilog guitar tab

Song: Chicksilog (OST of PRO)

Artist: Kamikazee

Album: Maharot

Tabber: Michael -chico- Rombawa

for friendstertseness : webmaster at tabs-database.com.com

for myspacers & neatvibers: webmaster at tabs-database.com.com

* / = slide

* x = muted note

* p = pull-off

* h = hammer

Intro

E---------------------------|

B---------------------------|

G-------9999999999999999----|

D-------xxxxxxxxxxxxxxxx----|

A-------7777777777777777----|

E---------------------------|

E---------------------------|

B-------9999999999999999----|

G-------9999999999999999----|

D-------xxxxxxxxxxxxxxxx----|

A-------7777777777777777----|

E---------------------------|

E-----------------------------------------------------------------------------------|

B-----------------------------------------------------------------------------------|

G----------10--12--1212---------10--12--1212--------10--12---1212----12121212121212-|

D-----12-------------------12-------------------12----------------------------------|

A-----------------------------------------------------------------------------------|

E-----------------------------------------------------------------------------------|

E-----------------------------------------|

B-----------------------------------------|

G----1212xxxxx-1212xxxxx-12x12x12x1212----|

D-----0-0------0-0-------0--0---0--00-----|

A-----------------------------------------|

E-----------------------------------------|

Verse1

E---------------------------------------|

B---------------------------------------|

G-------999----666------4-4-------------|

D-------999----666------4-4-------------|

A-------777----444------2-2-------------|

E---------------------------------------|

magdamag nag aabang maglalaro kaya

E---------------------------------------|

B---------------------------------------|

G-------999----666------4-4-------------|

D-------999----666------4-4-------------|

A-------777----444------2-2-------------|

E---------------------------------------|

dalagang nagtatago sa alyas na maldita

E---------------------------------------|

B---------------------------------------|

G---------------------------------------|

D-------99------------------------------|

A-------77---99---1111--99--------------|

E------------77---9-9---77--------------|

sa dating tagpuan sa bayan ng prontera

E---------------------------------------|

B---------------------------------------|

G---------------------------------------|

D-------99------------------------------|

A-------77---99---1111--99--------------|

E------------77---9-9---77--------------|

sa tabi ng tindahan ng magic at sandata

E---------------------------------------|

B---------------------------------------|

G-------99------------------------------|

D-----------99----------12--------------|

A--------------------------12-----------|

E---------------99----------------------|

E-----------------------------------------------------------------------------------|

B-----------------------------------------------------------------------------------|

G----------10--12--1212---------10--12--1212--------10--12---1212----12121212121212-|

D-----12-------------------12-------------------12----------------------------------|

A-----------------------------------------------------------------------------------|

E-----------------------------------------------------------------------------------|

Verse2

E---------------------------------------|

B---------------------------------------|

G-------999----666------4-4-------------|

D-------999----666------4-4-------------|

A-------777----444------2-2-------------|

E---------------------------------------|

nung minsan bga ay nag alay kapa ng buhay mo

E---------------------------------------|

B---------------------------------------|

G-------999----666------4-4-------------|

D-------999----666------4-4-------------|

A-------777----444------2-2-------------|

E---------------------------------------|

nung kinalaban natin ang mga bagong dayo

E---------------------------------------|

B---------------------------------------|

G---------------------------------------|

D-------99------------------------------|

A-------77---99---1111--99--------------|

E------------77---9-9---77--------------|

natalo nga sila at nagyaya kang magsaya

E---------------------------------------|

B---------------------------------------|

G---------------------------------------|

D-------99------------------------------|

A-------77---99---1111--99--------------|

E------------77---9-9---77--------------|

aking hinihintay ang makita ka

E---------------------------------------|

B---------------------------------------|

G-------99------------------------------|

D-----------99----------12--------------|

A--------------------------12-----------|

E---------------99----------------------|

Pre Chorus

E------------------------------------------|

B------------------------------------------|

G------666--666-----------------------9~---|

D------666--666--444--444--777--777---x~---|

A------444--444--444--444--777--777---7~---|

E----------------222--222--577--577--------|

alas dos nung linggo sa gotesco

E------------------------------------------|

B------------------------------------------|

G------666--666-----------------------9~---|

D------666--666--444--444--777--777---x~---|

A------444--444--444--444--777--777---7~---|

E----------------222--222--577--577--------|

nag polo pa ako at nag pabango

E------------------------------------------|

B------------------------------------------|

G----777--777---131313--111111-999---------|

D----777--777----x-x-x---x-x-x-xxx---------| x3

A----577--555---111111---9-9-9-777---------|

E------------------------------------------|

nananabik habang hinahanap ka

tumigil ang mundo ng makita ka

Chorus

E-----------------------------------------------------------------------------------|

B-----------------------------------------------------------------------------------|

G----------10--12--1212---------10--12--1212--------10--12---1212----12121212121212-|

D-----12-------------------12-------------------12----------------------------------|

A-----------------------------------------------------------------------------------|

E-----------------------------------------------------------------------------------|

chiksilog ako ay nahulog

nilinlang niloko

alam ko ng sekreto mo

E---------------------------------------|

B---------------------------------------|

G-------99------------------------------|

D-------99---99---1111--99--------------| x3

A-------77---99---1111--99--------------|

E------------77---9-9---77--------------|

chiksilog ako ay nahulog

nilinlang niloko

alam ko ng sekreto mo

Solo

E--------------------------------------------------------------------------|

B--------------------------------------------------------------------------|

G----101010101010------------------------101010101010----------------------|

D-------------------121212---111111---------------------121212---111111----|

A--------------------------------------------------------------------------|

E--------------------------------------------------------------------------|

E---------------------------------------------|

B---------------------------------------------|

G---------------------------------------------|

D-----------------121212121212--111111---7~---|

A---------------------------------------------|

E---------------------------------------------|

hindi ko alam ung kasunod...

BRIDGE

E-----------------------------------------------------------------|

B-----------------------------------------------------------------|

G--------------------999----------------999---------------999-----|

D-----777-999-111111-xxx-777-999-111111-xxx-777-999-111111-xxx----| x2

A-----777-999-111111-777-777-999-111111-777-777-999-111111-777----|

E-----555-777--9-9-9-----555-777--9-9-9-----555--777-9-9-9--------|

E------------------------|

B------------------------|

G------------------------|

D-----777-999-111111-----|

A-----777-999-111111-----|

E-----555-777--9-9-9-----|

E-----------------------------------------------|

B-------10h9p------10h9p-----10h9p-----10h9p----|

G----10---------10--------10--------10----------|

D-----------------------------------------------|

A-----------------------------------------------|

E-----------------------------------------------|

Verse3

E---------------------------------------|

B---------------------------------------|

G-------999----666------4-4-------------|

D-------999----666------4-4-------------|

A-------777----444------2-2-------------|

E---------------------------------------|

walang saysay mag level-up pantasya ay nasira na

E---------------------------------------|

B---------------------------------------|

G-------999----666------4-4-------------|

D-------999----666------4-4-------------|

A-------777----444------2-2-------------|

E---------------------------------------|

ang inipong lakas naglahong parang bula

E-------------------------------------------------------------------------------------|

B-------------------------------------------------------------------------------------|

G-9999999999999999-11111111111111\\1313\\16161616-9999999999999999-1111111111111111-----|

D-xxxxxxxxxxxxxxxx--x-x-x-x-x-x-x\\-x-x\\xxxxxxxx-xxxxxxxxxxxxxxxx--x-x-x-x-x-x-x-x-----|

A-7777777777777777--9-9-9-9-9-9-9\\1111\\14141414-7777777777777777- 9 9 9 9 9 9 9 9-----|

E-------------------------------------------------------------------------------------|

kaya pala ang husay mo sa espada

si maldita ay lalaki pala

Pre Chorus

E------------------------------------------|

B------------------------------------------|

G------666--666-----------------------9~---|

D------666--666--444--444--777--777---x~---|

A------444--444--444--444--777--777---7~---|

E----------------222--222--577--577--------|

alas dos nung linggo sa gotesco

E------------------------------------------|

B------------------------------------------|

G------666--666-----------------------9~---|

D------666--666--444--444--777--777---x~---|

A------444--444--444--444--777--777---7~---|

E----------------222--222--577--577--------|

nag polo pa ako at nag pabango

E------------------------------------------|

B------------------------------------------|

G----777--777---131313--111111-999---------|

D----777--777----x-x-x---x-x-x-xxx---------| x3

A----577--555---111111---9-9-9-777---------|

E------------------------------------------|

nananabik habang hinahanap ka

tumigil ang mundo ng makita ka

Chorus

E-----------------------------------------------------------------------------------|

B-----------------------------------------------------------------------------------|

G----------10--12--1212---------10--12--1212--------10--12---1212----12121212121212-|

D-----12-------------------12-------------------12----------------------------------|

A-----------------------------------------------------------------------------------|

E-----------------------------------------------------------------------------------|

chiksilog ako ay nahulog

nilinlang niloko

alam ko ng sekreto mo

E---------------------------------------|

B---------------------------------------|

G-------99------------------------------|

D-------99---99---1111--99--------------| x3

A-------77---99---1111--99--------------|

E------------77---9-9---77--------------|

chiksilog ako ay nahulog

nilinlang niloko

alam ko ng sekreto mo

e2 para sa mga naglalaro ng PRO, private server.... na mahilig gumawa ng character nilang

babae kahit lalaki sila o tinatawag na chicksilog...

ako mahilig din me magpanggap na babae hehe... kaya mag ingat kayo baka maloko kau..

check niyo narin ung ibang tab ko:

aizo - trip na trip (OST of BarkadaTrip)

Added by tabs-database.com and our distinguished partners

Get this song at:  amazon.com sheetmusicplus.com

Share your thoughts

0 Comments found