Kamikazee

Kamikazee - Apir Day guitar tab

Song:Apir Day

Album:Maharot

Artist:Kamikazee

Date:April,2006

Tabber:Ryan Manongdo

16 years old,Montalban Rizal

webmaster at tabs-database.com.com(friendster&YM)

Notes:Oi,hehe..kayo na nga pa lang bahalang mag-ayos sa song structure.

Nakakabaliw kasing ayusin pero madali na lang ito kasi paulit-ulit

lang ung mga parts dito.Pakinggan nyo rin ng maige para makuha nyo

yung tamang strumming at timing.Kung may mga mali o kulang,kayo ng

bahalang mag-tama o mag-dagdag.Pwede nyo ding lait-laitin,hehe....

Para nga pala ito sa mga tanggero,lasenggero,basagulero,gimikerro,

at sa mga kantontero!!hehe..jok lang!!Peace V and ROCK ON \\;;/, !!

Gtr.Legend

x means DEAD STRING

~ means LET IT RING

. means PALM MUTING

/ means SLIDE DOWN

\\ means SLIDE UP

Intro prt.1

e-------------------------------|

B-5-5-5-5----x-5-x-5-x-5-x-44---|

G-6-6-6-6----x-5-x-5-x-5-x-55---|

D-------------------------------|

A-------------------------------|

E-------------------------------|

. . . . . . . ..

Intro prt.2

Gtr.1

e-----------------------------------------------|

B-5555555-7777777-9999999-101010/121212---------|

G-6666666-7777777-9999999-101010/121212---------|

D-----------------------------------------------|

A-----------------------------------------------|

E-----------------------------------------------|

.... .... .... ......

Gtr.2

e-------------- ---------------------------|

B-5-7-5-77-5--- 3x --10-10-9--10-10-9-12------| 2x

G-------------- Then ---------------------------|

D-------------- ---------------------------|

A-------------- ---------------------------|

E-------------- ---------------------------|

e-------------------- ------------------5--|

B--5-7-5--7/9-7--5-7- 3x --5-7-5--7/9-7--5----| 2x

G-------------------- Then ---------------------|

D-------------------- ---------------------|

A-------------------- ---------------------|

E-------------------- ---------------------|

Before Verse:

e-------------------|

B-------------------|

G-------------------|

D--9-7-6-7-6--------|

A-------------7-----|

E-------------------|

Verse:

e----------------------------------------|

B-55--77--99--77---55--77--9999--101010--|

G-66--77--99--77---66--77--9999--101010--|

D----------------------------------------|

A----------------------------------------|

E----------------------------------------|

.. .. .. .. .. .. .... . . .

Bridge prt.1:

Both Gtrs.

e------------------ -------------------|

B-5-5-5-5-5-5-5-5-- -------------------|

G-6-6-6-6-6-6-6-6-- -------------------|

D------------------ --9-7-6-7-6--------|

A------------------ ------------7------|

E------------------ -------------------|

. . . . . . . .

Gtr.1

e--3~--1~--2~--1~---|

B--3~--1~--2~--1~---|

G-------------------|

D-------------------|

A-------------------|

E-------------------|

Gtr.2

e------------------------------------------------------------------|

B--4h5~--6-8-9-7-6-5-5/6\\5-----9-10-9-10--9h12-10-9-7-5-6-6h8-6----|

G------------------------------------------------------------------|

D------------------------------------------------------------------|

A------------------------------------------------------------------|

E------------------------------------------------------------------|

e-------------------------- --------------------------------------|

B--10-9-10-9-9h12-10-9-10~- 2x --6-5-7-6-6h8-6-5-6-8h10-8-6-5-5/6\\5--|

G-------------------------- Then --------------------------------------|

D-------------------------- --------------------------------------|

A-------------------------- --------------------------------------|

E-------------------------- --------------------------------------|

Bridge prt.2:

Gtr.1

e---------------------|

B-55--77--99--1010----|

G-66--77--99--1010----|

D---------------------|

A---------------------|

E---------------------|

.. .. .. . .

Gtr.2

e--------------------------------------------------------------|

B-14-12----10-9-10-9-10-10-9---------5-6-7-8-9--7-6-7--6-7-6---|

G-------------------------------5-7----------------------------|

D--------------------------------------------------------------|

A--------------------------------------------------------------|

E--------------------------------------------------------------|

Outro:Repeat Intro prt.1

End...

Lyrics by forget_013

Verse 1:

Doon sa amin sa sinkatuna

Mahaharot ang mga binata

Isang araw na inaabangan

Apir Day ay ipinag-diriwang

Chorus:

Hawak-hawak kamay iabot mo ang tagay

Kahit sobrang lasing walang nag-aaway

Kunin mo na ang gitara lahat ay kakanta

Kahit wala sa tono basta't sama-sama

Verse 2:

Nandito na ang buong barkada

May softdrinks na at lapad na grandma

Kahit kelan maisipan

Apir Day ay ipinag-diriwang

Repeat Chorus

Apir Apir Apir Day tayo

Apir Apir Aprir Day tayo

Paboritong Holy Day namin to

Bridge:

Eman,pabili ng gulaman

Halika tara na

Mas solido kapag kasama ka

Halika tara na mas solido kapaga kasama ka

Kunin mo na ang gitara

Lahat ay kakanta

Kahit sobrang lasing

Basta't sama-sama

ayy ayyy

ayy ayyy

Apir Apir Apir Day tayo

Apir Apir Aprir Day tayo

Paboritong Holy Day namin to

oyy oyy oyy oyyy

umba umba um tenge

Enjoi....

I would like to greet my f*ckin HORNY friends;Ram,Andrei,Louis,

Migs,Geoffrey,Roi,& Nath Ahaha...My Band Mates;Edy,Dino,Jiro,Mik2,

Andrei and Aeroll(Padre Garotte),The DOTA ALL-STARS of NSDAPS San

Mateo Rizal,The Tower RED Records for nothing,Sa mga ka-CSTRIKE at

ka GB ko,Ung mga frndsz ko sa Montalban and my Luv;Cesz!!nyahaha...

V and \\;;/,

Added by tabs-database.com and our distinguished partners

Get this song at:  amazon.com sheetmusicplus.com

Share your thoughts

0 Comments found