Kamikazee

Kamikazee - American Junk guitar tab

American Junk - Kamikazee vs. Parokya Ni Edgar

ALBUM - Kami napo muna ulit

This is a Very Fucking Song..hehehehe..

Hi to..

my Fucking Bandm8s

van,hamil,kimjake

friends

meil,abbie,eka...muka kayong puwit!!!!!

Donated by Francis !

Sacred Heart College

Hi!BSN 2C all BSN

f_sario@yahoo.com (add mo]

09287150674

tanda=hehehe..

/=dulas

x=patay na tali

*=piping-tali

h=pukpok

(##)=pwedeng patay na tali

Legend=

/=slide

x=dead string

*=palm mute

h=hammer

(##)=optional/dead string

TUNING-

Guitar 1 { e b g d A E }=jomal

Guitar 2 { e b g d A E }=led

Intro-

1.

Guitar1

|--------------------------|-----------------------------------------|

|--------------------------|-----------------------------------------|

|-5-4---5-4---5-4---5-4----|-5-4--5-4--5-4--5-4----------------------|

|--------------------------|-----------------------------------------|

|--------------------------|------------------------55-5---55-5------|

|--------------------------|------------------------33-3---33-3------|

* * * * * * * * ** **

pwede rin to.. nasa a.s.a.p. live ko napanood...

|--------------------------|-----------------------------------------|

|--------------------------|-----------------------------------------|

|-5-4---5-4---5-4---5-4----|-5-4--5-4--5-4--5-4--------10-----10-----|

|--------------------------|---------------------------12-----12-----|

|--------------------------|-----------------------(55)---(55)-------|

|--------------------------|-----------------------(33)---(33)-------|

* * * * * * * * ** **

Guitar2

|--------------------------|--------------------------------------------|

|--------------------------|--------------------------------------------|

|--------------------------|--------------------------------------------|

|--------------------------|---------------------------55-5---55-5------|

|--------------------------|---------------------------55-5---55-5------|

|--------------------------|---------------------------33-3---33-3------|

** **

2.

Guitar1

|---------|---------|-----------|---------|---------|---------|--------|-------|---------|

|---------|---------|-----------|---------|---------|---------|--------|-------|---------|

|---------|---------|-----------|---------|---------|---------|--------|-------|---------|

|---------|---------|-----------|---------|---------|---------|--------|-------|---------|

|-5-5-5-5-|-5-5-5-5-|-55-5-55-5-|-5-5-5-5-|-5-5-5-5-|-5-5-5-5-|-5-5-5-5|-55-33-|-7-5-3-5-|

|-3-3-3-3-|-3-3-3-3-|-33-3-33-3-|-3-3-3-3-|-3-3-3-3-|-3-3-3-3-|-3-3-3-3|-33-11-|-5-3-1-3-|

** **

or

|---------|---------|-----------|---------|---------|---------|--------|-------|---------|

|---------|---------|-----------|---------|---------|---------|--------|-------|---------|

|---------|---------|----10---10|---------|---------|---------|--------|-------|---------|

|---------|---------|----12---12|---------|---------|---------|--------|-------|---------|

|-5-5-5-5-|-5-5-5-5-|(55)-(55)--|-5-5-5-5-|-5-5-5-5-|-5-5-5-5-|-5-5-5-5|-55-33-|-7-5-3-5-|

|-3-3-3-3-|-3-3-3-3-|(33)-(33)--|-3-3-3-3-|-3-3-3-3-|-3-3-3-3-|-3-3-3-3|-33-11-|-5-3-1-3-|

** **

Guitar2

|---------|---------|-----------|---------|---------|---------|--------|-------|---------|

|---------|---------|-----------|---------|---------|---------|--------|-------|---------|

|---------|---------|-----------|---------|---------|---------|--------|-------|---------|

|---------|---------|-55-5-55-5-|---------|---------|---------|--------|-55-33-|-7-5-3-5-|

|---------|---------|-55-5-55-5-|---------|---------|---------|--------|-55-33-|-7-5-3-5-|

|-2-3-2-0-|-2-3-2-0-|-33-3-33-3-|-2-3-2-0-|-2-3-2-0-|-2-3-2-0-|-2-3-2-0|-33-11-|-5-3-1-3-|

** **

Verse-

Guitar 1 & 2

leave me... i dont...

|---------------------------|------------------------------------|

|---------------------------|------------------------------------|

|-555-----------------------|--555-------------------------------|

|-555-----------------------|--555-------------------------------|

|-333-----------------------|--333-------------------------------|

|---------------------------|------------------------------------|

Guitar 1

|---------------------------|------------------------------------|

|---------------------------|--6-5--6-5--6-5--6-5--6-5--6-5--6-5-|

|---------------------------|------------------------------------|

|---------------------------|------------------------------------|

|-33------------------------|------------------------------------|

|-11------------------------|------------------------------------|

* * * * * * * * * * * * * *

Guitar2

|---------------------------|------------------------------------|

|---------------------------|------------------------------------|

|---------------------------|------------------------------------|

|-33------------------------|------------------------------------|

|-33------------------------|------------------------------------|

|-11------------------------|------------------------------------|

Guitar1

|-----------------------------------------------------------------|

|-----------------------------------------------------------------|

|--5-4--5-4--5-4--5-4--5-4--5-4--5-4--5-4--5-4--5-4--5-4--5-4-----|

|-----------------------------------------------------------------|

|-----------------------------------------------------------------|

|-----------------------------------------------------------------|

Guitar2

|----------------------------------------------------------------|

|----------6-5--6-5--6-5--6-5--6-5--6-5--6-5--6-5---6-5--6-5-----|

|-55-------------------------------------------------------------|

|-55-------------------------------------------------------------|

|-33-------------------------------------------------------------|

|----------------------------------------------------------------|

Refrain

-

Guitar1

|------------------------------------------------------------|

|------------------------------------------------------------|

|------------------------------------------------------------|

|------------------------------------------------------------|

|-3-x-3-x-3-x--5-x-5-x-5-x--xxxxxx---------------------------|

|-1-0-1-0-1-0--3-2-3-2-3-2--xxxxxx---------------------------|

* * * * * *

Guitar1

|------------------------------------------------------------|

|------------------------------------------------------------|

|------------------------------------------------------------|

|------------------------------------------------------------|

|-3-3-3-3-3-3--5-x-5-x-5-x--xxxxxx---------------------------|

|-1-0-1-0-1-0--3-x-3-x-3-x--xxxxxx---------------------------|

Chorus-

Guitar1

|-----------------------------------|--------------------------------------|

|-----------------------------------|--------------------------------------|

|--5-5-5-5-5-5-5-5------------------|--5-5-5-5-5-5-5-5---------------------|

|--5-5-5-5-5-5-5-5--3-3-3-3-3-3-3-3-|--5-5-5-5-5-5-5-5--3-3-3-3-3-3-3-3----|

|--3-3-3-3-3-3-3-3--3-3-3-3-3-3-3-3-|--3-3-3-3-3-3-3-3--3-3-3-3-3-3-3-3----|

|-------------------1-1-1-1-1-1-1-1-|-------------------1-1-1-1-1-1-1-1----|

Guitar2

|-----------------------------------|--------------------------------------|

|-----------------------------------|--------------------------------------|

|-----------------------------------|--------------------------------------|

|--5-5-5-5-5-5-5-5------------------|--5-5-5-5-5-5-5-5---------------------|

|--3-3-3-3-3-3-3-3--3-3-3-3-3-3-3-3-|--3-3-3-3-3-3-3-3--3-3-3-3-3-3-3-3----|

|-------------------1-1-1-1-1-1-1-1-|-------------------1-1-1-1-1-1-1-1----|

Post Chorus1

Guitar 1& 2

|--------------------------------|-------------------------------|

|--------------------------------|-------------------------------|

|--5~----------------------------|-------------------------------|

|--5~----------------------------|---7--5--3--5------------------|

|--3~----------------------------|---7--5--3--5------------------|

|--------------------------------|---5--3--1--3------------------|

Repeat Verse,Refrain,Chorus

Post Chorus2-

|--------------------------------|-------------------------------|

|--------------------------------|-------------------------------|

|--5~----------------------------|-------------------------------|

|--5~----------------------------|-------------------------------|

|--3~----------------------------|-------------------------------|

|--------------------------------|-------------------------------|

Interlude-

Bass=Guitar

|---------|

|---------|

|---------|

|---------|

|-------3-|

|-3-1-0---|

|------------------------------------------------------------------------|

|------------------------------------------------------------------------|

|------------------------------------------------------------------------|4x

|--------2--3-3/5-3-2----------------------2--3-3/5-3-2------------------|

|--3---3-----------------------------3---3-------------------------------|

|---------------------3-2-3--3-2-3----------------------3-2-3--3-2-3-----|

Guitar1

|----------------------------------|------------------------------------|

|--------5--6-6/8-6-5--------8-7-8-|-------5--6-6/8-6-5--------8-7-8----|

|--5---5---------------------------|-5---5------------------------------|

|---------------------5-4-5--------|--------------------5-4-5-----------|3x

|----------------------------------|------------------------------------|

|----------------------------------|------------------------------------|

|----------------------------------|--------------------------------------|

|----------------------------------|--------------------------------------|

|----------------------------------|--------------------------------------|

|--------2--3-3/5-3-2--------------|--------2--3-3/5-3-2--------5-4-5-----|

|--3---3---------------------------|--3---3--------------5-4-5--5-4-5-----|

|---------------------3-2-3--3-2-3-|---------------------3-2-3--3-2-3-----|

Guitar2

|--3--3--3--3---3--3--3--3---|---3--3--3--3---3--3--3--3---------|

|--5--5--5--5---3--3--3--3---|---5--5--5--5---3--3--3--3---------|

|--5--5--5--5---4--4--4--4---|---5--5--5--5---4--4--4--4---------|

|--5--5--5--5---5--5--5--5---|---5--5--5--5---5--5--5--5---------|4x

|----------------------------|-----------------------------------|

|----------------------------|-----------------------------------|

Refrain-

Guitar1

|------------------------------------------------------------|

|------------------------------------------------------------|

|------------------------------------------------------------|

|------------------------------------------------------------|

|-3-x-3-x-3-x--5-x-5-x-5-x--xxxxxx---------------------------|

|-1-x-1-x-1-x--3-x-3-x-3-x--xxxxxx---------------------------|

Guitar1

|------------------------------------------------------------|

|------------------------------------------------------------|

|------------------------------------------------------------|

|------------------------------------------------------------|

|-3-3-3-3-3-3--5-4-5-4-5-4--xxxxxx---------------------------|

|-1-0-1-0-1-0--3-2-3-2-3-2--xxxxxx---------------------------|

Bridge-

Guitar1 & 2

|-----------|-------------|--------------|---------------|---------------|

|-----------|-------------|--------------|---------------|---------------|

|-x555------|-x555--------|-x555---------|-x555----------|---------------|

|-x555------|-x555--------|-x555---------|-x555----------|-xxxxxxx-------|

|-x333------|-x333--------|-x333---------|-x333----------|-xxxxxxx-------|

|-----------|-------------|--------------|---------------|-xxxxxxx-------|

Outro-chorus

Guitar1

|-----------------------------------|--------------------------------------|

|-----------------------------------|--------------------------------------|

|--5-5-5-5-5-5-5-5------------------|--5-5-5-5-5-5-5-5---------------------|

|--5-5-5-5-5-5-5-5--3-3-3-3-3-3-3-3-|--5-5-5-5-5-5-5-5--3-3-3-3-3-3-3-3----|

|--3-3-3-3-3-3-3-3--3-3-3-3-3-3-3-3-|--3-3-3-3-3-3-3-3--3-3-3-3-3-3-3-3----|

|-------------------1-1-1-1-1-1-1-1-|-------------------1-1-1-1-1-1-1-1----|

Guitar2

|-----------------------------------|--------------------------------------|

|-----------------------------------|--------------------------------------|

|-----------------------------------|--------------------------------------|

|--5-5-5-5-5-5-5-5------------------|--5-5-5-5-5-5-5-5---------------------|

|--3-3-3-3-3-3-3-3--3-3-3-3-3-3-3-3-|--3-3-3-3-3-3-3-3--3-3-3-3-3-3-3-3----|

|-------------------1-1-1-1-1-1-1-1-|-------------------1-1-1-1-1-1-1-1----|

Torotot=Guitar 4x

|-------------------7h8-7h8---------|-------------------7h8-7h8------------|

|-----------------------------------|--------------------------------------|

|-----------------------------------|--------------------------------------|

|-----------------------------------|--------------------------------------|

|-----------------------------------|--------------------------------------|

|-----------------------------------|--------------------------------------|

end

Guitar1&2

|----x----------------------------------------------------------|

|----x----------------------------------------------------------|

|----x----------------------------------------------------------|

|-3--x----------------------------------------------------------|

|-3--x----------------------------------------------------------|

|-1--x----------------------------------------------------------|

Get this song at:  amazon.com sheetmusicplus.com

Share your thoughts

0 Comments found