Kamikazee

Kamikazee - Ambisyoso guitar tab

Song:Ambisyoso

Album:Maharot

Artist:Kamikazee

Date:March,2066

Tabber:Ryan Manongdo

16 years old,Montalban Rizal

webmaster at tabs-database.com.com(Friendster&YM)

Notes:Yung ibang lead parts nga pala hindi ko na sinama,Kaya

kayo ng bahala dun!!Pakinggan nyo na lang ng maige para

makuha nyo yung strumming at timing.Kung may mga mali o

kulang,kayo ng bahalang mag-tama o mag-dagdag.Pwede nyo

ring lait-laitin!!hehe..Para nga pala ito sa mga nanga-

ngarap na hanggang pangarap na lng tlaga!!hehe..Peace V

and ROCK ON \\;;/, !!!

Gtr.Legends:

~ means LET IT RING

/ means SLIDE DOWN

\\ means SLIDE UP

. means PALM MUTING

Intro prt 1:

Gtr 1:

e-----------------------------------------------------|

B-----------------------------------------------------|

G-----------------------------------------------------|

D-4444444--7777--5555555--7777--4444444--7777--55555~-|

A-----------------------------------------------------|

E-----------------------------------------------------|

Gtr 2:

e-14~---10~---------14~----10~-----------------|

B------------10~-----------------10~-----------|

G----------------------------------------------|

D----------------------------------------------|

A----------------------------------------------|

E----------------------------------------------|

Intro prt 2:

Gtr.1

e----------------------------------------------|

B----------------------------------------------|

G----------------------------------------------|

D-77777--44444--55555---77777--44444--5~-------|

A-55555--44444--55555---55555--44444--5~-------|

E--------22222--33333----------22222--3~-------|

Gtr.2

e----------------------------------------------|

B----------------------------------------------|

G----------------------------------------------| 2x

D----4-4/5\\4---4---4-4/5\\4-----5-4/5\\4---------|

A--5---------5---5---------5-3---------5-------|

E----------------------------------------5~----|

Verse 1:

e---0~--------------------0~-------------------|

B-3-------2-3-2-3-2~----3-------2-3-2-3-2~-----|

G-------2---------------------2----------------|

D----------------------------------------------|

A----------------------------------------------|

E----------------------------------------------|

Pre-Chorus

e----------------------------------------------|

B----------------------------------------------|

G----------------------------------------------|

D--777777-44444-55555-777777-44444--5~---------|

A--555555-44444-55555-555555-44444--5~---------|

E---------22222-33333--------22222--3~---------|

...... ..... ..... ...... .....

Chorus:

e----------------------------------------------|

B----------------------------------------------|

G----------------------------------------------|

D-777777-444444-55555-777777-44444--5--55555---|

A-555555-444444-55555-555555-44444--5--55555---|

E--------222222-33333--------22222--3--33333---|

.

Verse 2:

Play Intro part 1 gtr.2

Repeat pre-chorus w/out palm muting

Repeat Chorus

Bridge prt.1:

e----------------------------------------------|

B----------------------------------------------|

G----------------------------------------------| 4x

D--77777--99999--55555555----------------------|

A--77777--99999--55555555----------------------|

E--55555--77777--33333333----------------------|

Bridge prt.2:

Gtr.Adlib

Notes:D-Dsus ung chords na yan!!kyo ng bhala s number ng strumming..

e--222332223333------------22332233-----------2222222------------|

B--333333333333------------33333333-----------3333333------------|

G--222222222222------------22222222-----------2222222------------|

D---------------4444-5555-----------4444-5555---------4444-5555--|

A---------------4444-5555-----------4444-5555---------4444-5555--|

E---------------2222-3333-----------2222-3333---------2222-3333--|

Last prt.ng Gtr.Adlib

e-23232323-----------------|

B-33333333-----------------|

G-22222222-----------------|

D-----------4444-5555------|

A-----------4444-5555------|

E-----------2222-3333------|

Bridge prt.3:

e-----------------------------------------------|

B-----------------------------------------------|

G-----------------------------------------------|

D-4444-5555--44-5-4-5-4---44-5-4-5-4---7777777--|

A-4444-5555--44-5-4-5-4---44-5-4-5-4---7777777--|

E-2222-3333--22-3-2-3-2---22-3-2-3-2---5555555--|

Repeat Chorus:

Ambisyoso Lyrics

Ang sarap sanang magkaroon ng

Sapatos na lumilipad

Spaceship, kotse ni batman

X-ray shades at laser gun

Magic wallet na hindi nauubusan ng laman

Time machine (time machine)

Babalik ang oras

Ngayon din

Chorus:

Libre lang mangarap

Walang hanggan na pag-hiling

Libre lang mangarap

Managinip ka habang gising

Ang sarap sanang maging bida

Sa sariling kong pelikula

Ninja, kumakain ng bala

Magaling sumayaw parang john travolta

Ka-love team ko ang lahat

Nang magaganda at seksing artista

Kissing scene kay aubrey miles o

Angel locsin

(repeat chorus 2x)

Di tulad sa tindahan

Walang utang, walang listahan

Managinip at mangarap

Walang kang babayaran

(repeat chorus)

Libre lang mangarap

Walang hanggan na pag-hiling

Libre lang mangarap

Managinip ka

Enjoi....

I would like to tnx my brother Alexis,My bandmates;Edy,Dino,Jiro,

,Mik2,Andrei&Aeroll(PADRE GARROTE),My f*ckin horny friends;Ram,Migs,

Andrei,Louis,Geoff,Roi&Nath,The DOTA ALL-STARS of NSDAPS San Mateo

Rizal and my LUV;Cesz!!nyahaha.....Added by tabs-database.com and our distinguished partners

Get this song at:  amazon.com sheetmusicplus.com

Share your thoughts

0 Comments found