Kamikazee

Kamikazee - Aids Bass guitar tab

-------------------------------------------------------------------------------

A.I.D.S. - Kamikazee

-------------------------------------------------------------------------------

Tabbed By : gio agudo

e-mail: webmaster at tabs-database.com.com

Tuning: Standard

Intro:

G|--------------------|

D|--------------------|

A|-4-4-4-4-4-4-4--0---|

E|------------------5-|

. . . . . . .

G|-------------------------------------------|

D|-------------------------------------------| 8x

A|-4-4-4-4-4-4-4--77777----------------------|

E|----------------------5-5-5-5-5-5-5--77777-|

. . . . . . . . . . . . . .

Verse 1:

G|-------------------------------------------|

D|-------------------------------------------| 8x

A|-4-4-4-4-4-4-4--77777----------------------|

E|----------------------5-5-5-5-5-5-5--77777-|

. . . . . . . . . . . . . .

Pre-Chorus:

G|----------------------------------------|

D|----------------------------------------|

A|-777777--------444444--------4-4-4-4----|

E|--------555555--------555555----------5-|

. . . .

Verse 2:

G|-------------------------------------------|

D|-------------------------------------------| 8x

A|-4-4-4-4-4-4-4--77777----------------------|

E|----------------------5-5-5-5-5-5-5--77777-|

. . . . . . . . . . . . . .

Pre-Chorus:

G|----------------------------------------|

D|----------------------------------------|

A|-777777--------444444--------4-4-4-4----|

E|--------555555--------555555----------5-|

. . . .

Chorus:

G|----------------------------- -----|

D|----------------------------- 2x -----|

A|-777777--------444444-------- -7~--|

E|--------555555--------555555- -----|

Bridge:

G|---------------------------|

D|---------------------------| 2x

A|-77~-----------44~---------|

E|--------55~-----------55~--|

G|------------------------------------------------------------|

D|------------------------------------------------------------|

A|-4-4-4-4-4-4-4--77777------------------4-4-4-4-4--77777-----|

E|----------------------5-5-5-5-5--77777------------------5~--|

. . . . . . . . . . . . . . . . .

Chorus:

G|----------------------------- -----|

D|----------------------------- 2x -----|

A|-777777--------444444-------- -7~--|

E|--------555555--------555555- -----|

Added by tabs-database.com and our distinguished partners

Get this song at:  amazon.com sheetmusicplus.com

Share your thoughts

0 Comments found