Judds

Judds - Grandpa (tell Me Bout The Good Old Days) intro guitar tab

s=slide p=pull off

E----------------------------------------

A--7s9-7---7---5-----7s9-7---7---5-------

D--------9---6-------------9---6---------

G----------------------------------------

B----------------------------------------

E----------------------------------------

E----------------------------------------

A--7s9-7---7-7---7s9-9-------------------

D--------9-------------11p9-9--9s7-------

G-----------------------------11s9-7s5---

B----------------------------------9s7---

E----------------------------------------

Get this song at:  amazon.com sheetmusicplus.com

Share your thoughts

0 Comments found