Judds

Judds - Grandpa intro guitar tab

TeleTickler6@netscape.net

E---|-------------------------|-------------------------|---

B---|-------------------------|-------------------------|---

G---|-------------------------|-------------------------|---

D---|--5/6--6-----------------|--5/6--6-----------------|---

A---|----------9--7--9-----7--|----------9--7--9-----7--|---

E---|-------------------9-----|-------------------9-----|---

E---|---------------------------------------------|-------------|--

B---|---------------------------------------------|-------------|--

G---|------------------------11/13--13--11--9--9--|-------------|--

D---|--5/6--6-------------------------------------|-------------|--

A---|----------9--7--9--9--9--9/11--11---9--7--7--|-------------|--

E---|---------------------------------------------|--9--7\4--0--|--

Get this song at:  amazon.com sheetmusicplus.com

Share your thoughts

0 Comments found