Journey

Journey - Wheel In The Shy Live guitar tab

WHEEL IN THE SKY (Live Version)

SONG: Wheel In The Sky

ARTIST: Journey

ALBUM: Captured

TABBED BY: Michael Reilly (mikster_01@yahoo.com)

INTRO

e:1--------3-----5-----6p5------------------------------|

B:------3-----------6-------6----5--------5--6p5-----3h5|

G:---2-----------5------------------5-------------5-----|

D:0--------2---------------------------5----------------|

A:-------------------------------3----------------------|

E:------------------------------------------------------|

e:1--------3---5--------7--8-------8--10p8--------|

B:------3---------6-----------8-----------10p8----|

G:---2---------5-----5-----------9--------------9-|

D:0--------2---------------10---------10----------|

A:------------------------------------------------|

E:------------------------------------------------|

e:1--------3--5-----6p5----------------------------|

B:------3--------6-------6---5-------5--6p5-----3h5|

G:---2--------5-----------------5------------5-----|

D:0--------2-----------------------5---------------|

A:---------------------------3---------------------|

E:-------------------------------------------------|

e:---------------------------------------|

B:-3-------------------------------------|

G:-3---------------------2--2--22-22--0h2|

D:-3----------------0h3--0--0--00-00--0--|

A:-1-----------0h3-----------------------|

E:---------------------------------------|

e:------------------------------------------|

B:------------------------------------------|

G:----------2--2--22--22--0h2-----------2---|

D:-----0h3--0--0--00--00--0----3p0------0---|

A:-0h3-----------------------------3p0------|

E:------------------------------------------|

Verse #1 (Repeat for all verses)

e:-----------------------------------------------------------------|

B:--------------------------------5-------3------------------------|

G:2--------------2----------------5-------3-------2--------------2-|

D:0---------0p3--0----------------5-------3-------0---------0p3--0-|

A:-----0p3---------------0--1--2--3-------1------------0p3---------|

E:-----------------------------------------------------------------|

Winter Haven't...or so. I hope.......longer

Chorus

e:------------------------|----------------8----10p8---------|

B:-6------8----10---5-----|---6---8---10---8----------10p8---|

G:-7------9----10---5-----|---7---9---10---9----------------9|

D:-7------9----10---5-----|---7---9---10---10----------------|

A:-5------7----8----3-----|---5---7---8----10----------------|

E:------------------------|----------------8-----------------|

wheel...the.......turning

e:---------------------------------------------|

B:--6--8--10--5-----5--5---3-----------------2-|

G:--7--9--10--5-----5--5---3-----------------0-|

D:--7--9--10--5-----5--5---3------------0h3----|

A:--5--7--8---3-----2--3---1-------0h3---------|

E:---------------------------------------------|

There are some other moves in there, but this is a great place to start

Sorry I can't seem to remember how the Lead goes, so if anyone has it please add it in.

Get this song at:  amazon.com

Share your thoughts

0 Comments found