Journey

Journey - Stone In Love guitar tab

This is "Stone in Love" by Journey. Another masterpiece on all pieces of the band. Enjoy!!

Standard tuning-EADGBe

h=hammer on

p=pull off

~=vibrato

/=slide

.=palm mute

ph=pinch harmonic

^=bend

r=release

Verse

e--3---3-3-2---2-3-3---3-3-3---3-----------------------------------|

B--3---3-3-3---3-3-3---3-3-3---3-----------------------------------|

G--0---0-0-2---2-2-0---0-0-0---0-----------------------------------|

D--0---0-0-0---0-0-2---2-2-----------------------------------------|

A------------------3---3-3-2---2-3p0-------------------------------|

E--3---3-3---------------------------2-----------------------------|

Thats the whole verse line just repeated. On the second verse its the same thing but

are some guitar fills in with it:

Fill #1

e--10------10--------------|

B--10^12---10^12r10p8~-----|

G--------------------------|

D--------------------------|

A--------------------------|

E--------------------------|

Fill #2

ph-hold bend-

e-----------------------------------|

B-----------------------------------|

G--2h4p2p0--2^3-3-3-3-3-3r2p0-------|

D-----------------------------2p0---|

A-----------------------------------|

E-----------------------------------|

Fill #3

e------15~-----15~------|

B--/17------17----------|

G-----------------------|

D-----------------------|

A-----------------------|

E-----------------------|

You will hear them and know when to put them in.

Chorus

. . . . . . . . . . . .

e--2---------------------------------------3-------3--2----|

B--3--3-3-3-3-3-3-3-3-3-3-3-3--------------3-----1-3--3----|

G--2--2-2-2-2-2-2-2-2-2-2-2-2--/4p2--------0-----0-0--2----|

D--0--0-0-0-0-0-0-0-0-0-0-0-0--------------0-----2-0--0----|

A------------------------------------3~----------3---------|

E------------------------------------------3-------3-------|

The chorus line repeats itself twice before going back into the verse.

Solo #1

e--17^19--17^19--17^19--17^19r17p15--17~--15---------------------|

B--------------------------------------------17^19--17^19r17p15~-|

G----------------------------------------------------------------|

D----------------------------------------------------------------|

A----------------------------------------------------------------|

E----------------------------------------------------------------|

-hold bend -

e--------------------------------15------------------------------------|

B--/17--15-----------15h17p15-------15--17^19/-------------------------|

G-------15--17~--/17----------17-----------------2^3-3-3-3-3-3r2p0-----|

D------------------------------------------------------------------2p0-|

A----------------------------------------------------------------------|

E----------------------------------------------------------------------|

Solo #2

ph ph

e-------------------------------------------------------|

B-------------------------------------------------------|

G--5^7--r5p3--------------------------------------------|

D-----------5~---------------------------5h7p5-5h7p5/---|

A----------------3-5-4-3-1-3-1-3-3~----/7-----7---------|

E-------------------------------------------------------|

hold bend

e----------------------10-10-----10------------10^11r10--8------------|

B----------------10^11----10^11--10^11r10p8~--------------10^11r10-8~-|

G----7h9p7-7h9p7------------------------------------------------------|

D--/9-----9-----------------------------------------------------------|

A---------------------------------------------------------------------|

E---------------------------------------------------------------------|

e----10---------------------------------------------------------------|

B--8------------8-10-------------17^19---15---------------------------|

G-------9^11---------9^10r9-7~--------------17-17^18r17p15---17--15---|

D----------------------------------------------------------17--17--17-|

A---------------------------------------------------------------------|

E---------------------------------------------------------------------|

e---------------------------------------------15-------------|

B------15-15h18p15----15h18p15----18^20----------------------|

G---17^------------17----------17----------------17^18r17p15-|

D------------------------------------------------------------|

A------------------------------------------------------------|

E------------------------------------------------------------|

e-------------------|

B-------------------|

G--17p15------------|

D-------17p15-------|

A------------17~----|

E-------------------|

Now the bridge before the last solo goes like this:

e------------6----8--------------------6----5---5-5-5------------|

B---8--8--8--8----10----0-----8--8--8--8----6---6-6-6--0---------|

G---4--5--7--8----10----0-----4--5--7--8----5---5-7-5--0---------|

D-----------------------0-------------------7----------0---------|

A----------------------------------------------------------------|

E-----------------------3------------------------------3---------|

e------------6----/8-------------------6----------------------|

B---8--8--8--8----/10---------8--8--8--8----3--3----------0---|

G---4--5--7--8----/10----/4---4--5--7--8----3--3---2--2---0---|

D------------------------/5-----------------3--3---3--3---0---|

A-------------------------------------------1--1--------------|

E---------------------------------------------------------3---|

Thats it for now. If you cant figure out the last solo at the end I could tab it out

you. Any questions or comments feel free to email me.Added by tabs-database.com and our distinguished partners

Get this song at:  amazon.com

Share your thoughts

0 Comments found