Journey

Journey - Seperate Ways Worlds Apart guitar tab

Journey's.. Seperate Ways, Worlds Apart

ok.. i played this song with the other tab, and thought, this song isnt the song with out

the intro.. so after trying for like 40 seconds, i figured it out.. here...

intro..

|--12--14--15------------

|----12--12--12-12-12----

|------------------------

|------------------------

|------------------------

|------------------------

background part later..

|----------------------

|----------------------

|---12-----11-----9----

|----------------------

|----------------------

|----------------------

^ hold ^ ^

VERSE

|-------------------------------------

|-------------------------------------

|----------------------x-x-x-5-x-5----

|-2--2--2-2-2--2--2-2--x-x-x----------

|-2--2--2-2-2--2--2-2--x-x-x----------

|-0--0--0-0-0--0--0-0-----------------

PRE-CHORUS

--------------------------------------------------

--5-5-5-----3--3-3-------------------------0-0-0--

--5-5-5-5---2--2-2--2-2---2-2-4-5--4--2-2--4-4-4--

--5-5-5-5---0-------2-2---2-2-4-5--4--2-2--2-2-2--

--------3-----------0-0---0-0-2-3--2--0-0---------

--------------------------------------------------

CHORUS (TWICE)

------------------------------------------

----9-8---8---8-8-8-7-7-7--5---5----------

----9-9---9---9-9-9-7-7-7--5---5--7-8-----

----9-9---9---9-9-9-7-7-7--5---5--7-8-----

----7-7---7---7-7-7-5-5-5--3---3--5-6-----

--0-----0---0-----------------------------

ENTERLUDE..if you will..

----------------------------------

----------------------------------

----------5---2-----------5---2---

--2---5---5---2---2---5---5---2---

--2---5---3---0---2---5---3---0---

--0---3-----------0---3-----------

chorus again...

OUTRO SOLO

----12-14-15----12-14-15-15b-hold-r1512-14-15-17b17-15-17-15-14-15-

-12-----------12----------------------------------------------------

--------------------------------------------------------------------

--------------------------------------------------------------------

--------------------------------------------------------------------

--------------------------------------------------------------------

-----------------------------------------

-17-13----11b11--------------------------

-------14--------------------------------

--------------------2----2-2---2---2-2---

--------------------2----2-2---2---2-2---

--------------------0----0-0---0---0-0---

Get this song at:  amazon.com

Share your thoughts

0 Comments found