Journey

Journey - Seperate Ways Solo guitar tab

Song Title: Separate Ways

Author: Journey

Album: Time3

Tempo: 125

Transcribed By; Daniel Kinder

My Email: dkinder5063@yahoo.com

Last edit: December 8, 2004

Parts: Solo, Tab Explanation

Missing: Check out my other tab for the rest of the song.

Tuning: Standard Tuning - EBGDAe

Notes: The solo is correct; to get the timing you'll have to

listen to the song.

Solo

|---------12------------14---15--------------12-----------14---15------|

|---12---------------------------------12------------------------------|

|----------------------------------------------------------------------|

|----------------------------------------------------------------------|

|----------------------------------------------------------------------|

|----------------------------------------------------------------------|

|---15b16r---12---------14---15-------17—16—1716-17----15—14---15-----|

|-------------------------------------------------------------------17-|

|----------------------------------------------------------------------|

|----------------------------------------------------------------------|

|----------------------------------------------------------------------|

|----------------------------------------------------------------------|

|------------------------------12----------14---15----------12-----14--|

|-13--------------------12----------------------------12---------------|

|-----14—11b(1/2)r-----------------------------------------------------|

|----------------------------------------------------------------------|

|----------------------------------------------------------------------|

|----------------------------------------------------------------------|

|-15—15b16r—127/14-15-17-16-14-15--17-15-14-15/19-19-19-19-19-19-19-19|

|----------------------------------------------------------------------|

|----------------------------------------------------------------------|

|----------------------------------------------------------------------|

|----------------------------------------------------------------------|

|----------------------------------------------------------------------|

|-19-15-14-15-1413-14-13-14-15-13----------10b11r------------12—10—10b|

|---------------------------------15-15-13—10b11r----10b11r--------10b|

|---------------------------------------------------------------------|

|---------------------------------------------------------------------|

|---------------------------------------------------------------------|

|---------------------------------------------------------------------|

|11r—10----------------------------------------------------------------|

|11r-----13-—12—10-------10--------------------------------------------|

|--------------------12------12------12--------------------------------|

|--------------------------------14------14-—12--14--12—-14--(14)-(14)-|

|----------------------------------------------------------------------|

|----------------------------------------------------------------------|

|-------------|

|-------------|

|-------------|

|--{14}--{14}-|

|-------------|

|-------------|

Tab Explanation

b - bend

r - release bend

b(12)r - bend one half step and release

- slide down

/ - slide up

Get this song at:  amazon.com

Share your thoughts

0 Comments found