Journey

Journey - Lady Luck guitar tab

Journey-Lady Luck

Evolution

Key

h = hammer

\ = slide

~ = vibrato

. = palm mute

b = bend half step

() = note w/in pinch harmonic

[] = note w/in harmonic

Intro

----------------------------------------

-7h8-7------------------------------8-5-

--------6h7-6---------------5---5-7-----

---------------7-5---5--5-7---7---------

-------------------7--------------------

----------------------------------------

----------------------------------

-7h8-7----------------------------

--------6h7-6----9---7---6--------

---------------7---7---7------\2--

------------------------------\2--

------------------------------\0--

Pre Verse(during organ solo)

---------------------------------

---------------------------------

---------------------------------

-2--14-----------------5--2-2----

-2--14--7-0-5-0-4-5-0--5--2-2----

-0--12-----------------3--0-0----

. . . .

-------------------------------

-------------------------------

-------------------------------

-2------------------5--2-2-----

-2------7--5--4-----5--2-2-----

-0-0-0---0--0---0-0-3--0-0-----

. . . . . . .

Verse(variation #1)

--------------------------------

--------------------------------

--------------------------------

-2------------------5-----14----

-2------7--5--4~----5-----14----

-0-0-0---0--0---0-0-3-0-0-12----

. . . . . . . .

Verse(variation #2)

---------------------------------

---------------------------------

---------------------------------

-2-------------------5--2-2------

-2------7--5--(4~)---5--2-2------

-0-0-0---0--0------0-3--0-0------

. . . . . . .

Verse(variation #3)

------------------------------------

------------------------------------

--------------(6~)------------------

-2-------------------5-----14-------

-2------7--5---------5-----14-------

-0-0-0---0--0------0-3-0-0-12-------

. . . . . . .

Verse(variation #4)

-----------------------

-----------------------

--------9-0-7-0-(6~)---

-2---------------------

-2---------------------

-0-0-0-----------------

. .

After chorus 1st time play this after the

last verse variation before the second chorus

-19-17-15-12\-

--------------

--------------

--------------

--------------

--------------

Chorus

--------------------------------------

--------------------------------------

---------7---------------9------------

-5-------7-------7-------9------------

-5-------5-5-6-7-7-------7-7-9-7------

-3-3-4-5---------5-5-6-7--------------

--------

--------

---9----

---9---- add this chord after the

---7---- chorus is played twice

--------

Solo(my version) F A S T

----12~-12-10-12-12-10-12-10---------------------

----------------------------12-11-10-------------

------------------------------------9-12~-9-(9~)-

-2-----------------------------------------------

-2-----------------------------------------------

-0-----------------------------------------------

--------------------------------------------

------10----------------------8-------------

-9-12----12-9-12-9-12b-9--7-9---7-9-9-7-9~--

--------------------------------------------

--------------------------------------------

--------------------------------------------

----------------------------------------

----------------------------------------

-----7h9p7------------------------------

-7-9-------7h9p7------------------------

-----------------7h9p7------------------

-----------------------7-9~-0-[12][12]--

-------------------------------------------------------------------------

-------------------------------------------------------------------------

-------------------------------------------------------------------------

---------------------------------------------(10~)------12-10-12-(10~)

----------(10~)---------(12~)-10-12-10---10-12-----12-10--------------

-12-10-12-------12-10-12---------------12-------------------------------

----------------------------------------------------10--------------

--------------------10----10------------10-12-10-12---12-10-10-(12~)

----9-12-(12~)-9-12----12---(12~)--9-12-----------------------------

-12-----------------------------------------------------------------

--------------------------------------------------------------------

--------------------------------------------------------------------

------10-12-10--------------------10-12--10-12-15--

-10-12--------12-10---------10-12------------------

--------------------11-9-11------------------------

---------------------------------------------------

---------------------------------------------------

---------------------------------------------------

-12-15-17--15-17-19-15b-12~---12-10-12-15b-15b-15b-15b-15b-12~\-

----------------------------------------------------------------

----------------------------------------------------------------

----------------------------------------------------------------

----------------------------------------------------------------

----------------------------------------------------------------

Bridge

---------------

---------------

---------------

-2---2---2---2-

-2---2---2---2-

-0---0---0---0-

Ending

----------------------------------

-7h8-7----------------------------

--------6h7-6----9---7---6--------

---------------7---7---7------\2--

------------------------------\2--

------------------------------\0--

Song Order

Intro (2x)

Pre verse (1x)

Verse (all var. 1x thru: repeat all of verse)

Chorus (2x)

Verse (" " ")

Chorus (2x)

Intro (2x)

Solo

Bridge (1x)

Chorus (4x)

Ending (1x)

Get this song at:  amazon.com

Share your thoughts

0 Comments found