Journey

Journey - Dont Stop Believing Solo guitar tab

Band: Journey

Song: Dont Stop Believing (Solo)

Album: Escape (1981)

Guitarist: Neal Schon

Tabbed By: Eric Vezeau (Vezy)

Tunning: Standard ( E A D G B e )

This isn't a really hard solo, so for all you beginners this would be an

ideal solo to start with. I also made a bass tab of this song, and I found that

all the other guitar solos for this song just don't sound right to me so I tabbed

it and I think its pretty accurate, here it is:

Solo:

e-----17--16--14-17-16~---16-17-16-----------------------17--16--14-17-16-|

B-12s-----------------------------19-17-16--17-14--12-10------------------|

G-------------------------------------------------------------------------|

D-------------------------------------------------------------------------|

A-------------------------------------------------------------------------|

E-------------------------------------------------------------------------|

Solo Continues:

e-14-12--19b~~---------------|

B--------------16b~17b~------|

G----------------------------| Instead of B-16b~17b~ you can do e-23b~24b~

D----------------------------| its more high pitch but a little harder to

A----------------------------| play.

E----------------------------|

Well Thats The Solo, Hope You Like It, Enjoy!!

Get this song at:  amazon.com

Share your thoughts

0 Comments found