Journey

Journey - Dont Stop Believin guitar tab

#----------------------------------PLEASE NOTE---------------------------------#

#This file is the author's own work and represents their interpretation of the #

#song. You may only use this file for private study, scholarship, or research. #

#------------------------------------------------------------------------------##

DON'T STOP BELIEVIN'

As recorded by Journey

(From the 1981 Album ESCAPE)

Words and Music by Steve Perry, Neal Schon and Jonathan Cain

Arranged by Journey

Transcribed by Derek Line

Gtr I (E A D G B E) - 'Piano 1 (right-hand piano part arr. for gtr.)'

Gtr II (E A D G B E) - 'Gtr. 1 (elec. w/dist.)'

Gtr III (E A D G B E) - 'Gtr. 2 (elec. w/dist.)'

Gtr IV (E A D G B E) - 'Gtr. 3 (elec. w/dist.)'

Intro

Moderately Q=120

E5 B5 C#m7 A E5

4/4

Gtr I

E E E E E E E E E E E E E E E E E E E E E E E E E E E E E E E E

|-7---7---7---7---|-7---7---7---7---|-7---7---7---7---|-5---5---5---5----|

|-5---5---5---5---|-7---7---7---7---|-5---5---5---5---|-2---2---2---2----|

|---4---4---4---4-|---4---4---4---4-|---4---4---4---4-|---2---2---2---2--|

|-----------------|-----------------|-----------------|------------------|

|-----------------|-----------------|-----------------|------------------|

|-----------------|-----------------|-----------------|------------------|

B5 G#m A

E E E E E E E E E E E E E E E E E E E E E E E E E E E E E E E E

|-7---7---7---7---|-7---7---7---7---|-7---7---7---7---|-5---5---5---5---||

|-5---5---5---5---|-7---7---7---7---|-4---4---4---4---|-2---2---2---2---||

|---4---4---4---4-|---4---4---4---4-|---4---4---4---4-|---2---2---2---2-||

|-----------------|-----------------|-----------------|-----------------||

|-----------------|-----------------|-----------------|-----------------||

|-----------------|-----------------|-----------------|-----------------||

1st Verse

E5 B5 C#m7 A

E E E E E E E E E E E E E E E E E E E E E E E E E E E E E E E E

|-7---7---7---7---|-7---7---7---7---|-7---7---7---7---|-5---5---5---5---|

|-5---5---5---5---|-7---7---7---7---|-5---5---5---5---|-2---2---2---2---|

|---4---4---4---4-|---4---4---4---4-|---4---4---4---4-|---2---2---2---2-|

|-----------------|-----------------|-----------------|-----------------|

|-----------------|-----------------|-----------------|-----------------|

|-----------------|-----------------|-----------------|-----------------|

E5 B5 G#m A

E E E E E E E E E E E E E E E E E E E E E E E E E E E E E E E E

|-7---7---7---7---|-7---7---7---7---|-7---7---7---7---|-5---5---5---5---|

|-5---5---5---5---|-7---7---7---7---|-4---4---4---4---|-2---2---2---2---|

|---4---4---4---4-|---4---4---4---4-|---4---4---4---4-|---2---2---2---2-|

|-----------------|-----------------|-----------------|-----------------|

|-----------------|-----------------|-----------------|-----------------|

|-----------------|-----------------|-----------------|-----------------|

E5 B5 C#m7 A

E E E E E E E E E E E E E E E E E E E E E E E E E E E E E E E E

|--7----7---7---7---|---7-----7---7---7---|-7---7---7---7---|-5---5---5---5---|

|--5----5---5---5---|---7-----7---7---7---|-5---5---5---5---|-2---2---2---2---|

|-----4---4---4---4-|-------4---4---4---4-|---4---4---4---4-|---2---2---2---2-|

|-------------------|---------------------|-----------------|-----------------|

|-------------------|---------------------|-----------------|-----------------|

|-------------------|---------------------|-----------------|-----------------|

|

| Gtr II

| W +W W W

|-Added by tabs-database.com and our distinguished partners

Get this song at:  amazon.com

Share your thoughts

0 Comments found