Journey

Journey - Don Stop Believing guitar tab

***I’ve played this live and it’s pretty close.

Intro harmonic, next sound is raking the strings between the nut and pegs.

E--------------------x-------

B-----7---------------x-------

G----------------------x-----

D-----------------------x-----

A------------------------x---

E-------------------------x---

palm mute,repeat several times.

E---------------------------------------------------

B--17-16-------17-16-------17-16-------17-16--------

G--------18-16-------18-16-------18-16-------18-16—-

D---------------------------------------------------

A---------------------------------------------------

E---------------------------------------------------

E----19--------------------------------------------

B----19b21-----------------------------------------

G--------------------------------------------------

D------------2-2-----------------------------------

A------------2-2-----------------------------------

E------------0-0-----------------------------------

Chorus (repeat 3xs)

E--------------------------------------------------0—

B----------------------4--2----4--5-----4--5----4--0—

G----------------------2--2----2--2-----4--4----4----

D----------------------2--2----2--2------------------

A--77777777-77777777----00-0000-00-0000--------------

E--44444444-55555555---------------------00-0000-00--

E--------------------------------------

B---4--2----4--5-----------------------

G---2--2----2--2-----------------------

D---2--2----2--2--------4-----4----2---

A----00-0000-00-0000----2--2--2--2-0---

E--------------------------0-----0-----

Verse

E------0-----------------------------------------

B------0-----------------------------------------

G-------------------------------------------------

D-----------------4----------6--------------------

A---------------2-2--2-4-6-4-4-4-6-7---7----7-8---

E---0-----0-2-4----------------------5-5--5-------

E------0-------------------------------

B------0-------------------------------

G--------------------------------------

D-----------------4--------------------

A---------------2-2--2-4-6---6--6--7---

E---0-----0-2-4------------4-4--4--5---

Solo

E-----------12-14-16—16b17---16--14---16b17--16---16b17b16-

B--12-14-16------------------------------------------------

G----------------------------------------------------------

D----------------------------------------------------------

A----------------------------------------------------------

E----------------------------------------------------------

E--14---------------------16b17-16--14-16b17-16-14-----

B-----17-16-17-------------------------------------17—

G--------------18-16-14--------------------------------

D------------------------------------------------------

A------------------------------------------------------

E-----------------------------------------------------

E----19-23b24----

B----------------

G----------------

D----------------

A----------------

E----------------

Get this song at:  amazon.com sheetmusicplus.com

Share your thoughts

0 Comments found