Journey

Separate Ways (worlds Apart) Tabs



More from Journey

Journey Tabs
Journey Chords
Journey Bass
Journey Lyrics



Song: Separate Ways (Worlds Apart)
Artist: Journey
Tabber: HeartBreakKid33198
This tab has been created with Easy Tab Creator

Intro/Verse
E|-----------------1111111111-----------------|
A|-----------------1111111111-----------------|
D|-----------------9-9-9-9-9------------------|
G|9--9--9----9-9-9----------------------------|
B|11-11-11---111111---------------------------|
E|0--0--0----0-0-0----------------------------|


Pre Chorus
Em C G Am
E|---------------------------------|
A|---------------------------------|
D|9--------------------------------|
G|9-------5---------7--------------|x2
B|7-------3-------5-7--------------|
E|----------------3-5--------------|


Chorus
Em C G Am D B
E|---------------------------------|
A|---------------------------------|
D|9--------------------------------|
G|9-------5---------------7-7-4----|x2
B|7-------3-------5-------7-5-2----|
E|----------------3-------5--------|


The solo im working on, ill update it when i have it


Get this song at amazon.com      Ebay     Ringtones Ringtones  


Learn to play: Songwriting, Piano, Harmonica, Guitar
Also available at Muzikum: Journey - Separate Ways Worlds Apart lyrics

Related Journey Tabs

Whos Cryin Know tabs
True Love tabs
Cloudy Days tabs
Seperate Ways Solo tabs
Remember Me tabs
Lovely Woman tabs
Send Her My Love tabs
Dont Be Down On Me Baby tabs
Open Arms Intro tabs
When You Love A Woman tabs
Faithfully tabs
Dont Stop Believin tabs
Feeling That Way anytime tabs
Don\'t Stop Believin\' tabs
Rain tabs
Dead Or Alive Bass tabs
Whos Crying Now tabs
Seperate Ways Worlds Apart tabs
Desert You tabs
Roses tabs


Guitar Tabs









All tabs are property and copyright of their owners. All tabs provided for educational purposes only. Privacy Policy, DMCA