Journey

Lady Luck Tabs



More from Journey

Journey Tabs
Journey Chords
Journey Bass
Journey Lyrics



Journey-Lady Luck
Evolution

Key
h = hammer
= slide
~ = vibrato
. = palm mute
b = bend half step
() = note w/in pinch harmonic
[] = note w/in harmonic

Intro
----------------------------------------|
-7h8-7------------------------------8-5-|
--------6h7-6---------------5---5-7-----|
---------------7-5---5--5-7---7---------|
-------------------7--------------------|
----------------------------------------|

----------------------------------|
-7h8-7----------------------------|
--------6h7-6----9---7---6--------|
---------------7---7---7------2--|
------------------------------2--|
------------------------------



Get this song at amazon.com      Ebay     Ringtones Ringtones  


Learn to play: Songwriting, Piano, Harmonica, Guitar
Also available at Muzikum: Journey - Lady Luck lyrics

Related Journey Tabs

You tabs
When I Think Of You tabs
Dont Stop Believing Solo tabs
Lights tabs
True Love tabs
Edge Of The Blade tabs
Message Of Love tabs
Separate Ways tabs
Whos Crying Now tabs
Dont Stop Believin Acoustic tabs
Whos Crying Now Bass tabs
Seperate Ways tabs
Wheel In The Shy Live tabs
Open Arms Intro tabs
Stone In Love tabs
Open Arms tabs
Send Her My Love tabs
Higher Place tabs
Any Way U Want It tabs
Roses tabs


Guitar Tabs









All tabs are property and copyright of their owners. All tabs provided for educational purposes only. Privacy Policy, DMCA