Journey

Dont Stop Believin Bass Tabs



More from Journey

Journey Tabs
Journey Chords
Journey Bass
Journey Lyrics



#----------------------------------PLEASE NOTE---------------------------------#

#This file is the author's own work and represents their interpretation of the #

#song. You may only use this file for private study, scholarship, or research. #

#------------------------------------------------------------------------------##



DON'T STOP BELIEVIN' (Bassline)

As recorded by Journey

(From the 1981 Album ESCAPE)



Words and Music by Steve Perry, Neal Schon and Jonathan Cain

Arranged by Journey

Transcribed by Derek Line



Gtr I (E A D G B E) - 'Piano 2 (left-hand piano part arr. for gtr.)'

Gtr II (E A D G) - 'Bass'

Gtr III (E A D G B E) - 'Gtr. 4 (elec. w/dist.)'



Intro

Moderately Q=120

E5 B5 C#m7 A E5

4/4

Gtr I

H +E E E E +H +E E E E +H +E E E E +H +E E E E

|----------------|------------------|------------------|-------------------|

|----------------|------------------|------------------|-------------------|

|----------------|------------------|------------------|-------------------|

|----------------|--------------1---|------------1-2---|------------1-2----|

|--------------2-|-(2)----(2)-4---4-|-(4)----(4)-----0-|-(0)----(0)--------|

|-0----(0)-2-4---|------------------|------------------|----------------0--|

|

| Gtr II

| H +E E E E +H +E E E E +H +E E E E +H +E E E E

|----------------|------------------|------------------|-------------------|

|----------------|------------------|------------------|-------------------|

|--------------2-|-(2)----(2)-4-6-4-|-(4)----(4)-6-7-0-|-(0)----(0)-6-7----|

|-0----(0)-2-4---|------------------|------------------|----------------0--|





B5 G#m A

+H +E E E E +H +E E E E +H +Q. E +H E E Q

|------------------|------------------|------------------|---------------||

|------------------|------------------|------------------|---------------||

|------------------|------------------|------------------|---------------||

|------------------|--------------1---|------------------|----------1-2--||

|----------------2-|-(2)----(2)-4-----|------------------|---------------||

|-(0)----(0)-2-4---|----------------4-|-(4)----(4)-----5-|-(5)-----------||

|

| +H +E E E E +H +E E E E +H +E E E E +H E E Q

|------------------|------------------|------------------|---------------||

|------------------|------------------|------------6-----|---------------||

|----------------2-|-(2)----(2)-4-6---|----------------0-|-(0)------6-7--||

|-(0)----(0)-2-4---|----------------4-|-(4)----(4)---4---|---------------||





1st Verse

E5 B5 C#m7 A

H. E E +H +E E Q H +E E E E +H +E E Q

||--------------|-----------------|----------------|------------------|

||o-------------|-----------------|----------------|------------------|

||--------------|-----------------|----------------|------------------|

||--------------|--------------1--|----------1-2---|------------1-2---|

||o-----------2-|-(2)----(2)-4----|-4----(4)-----0-|-(0)----(0)-------|

||--0-------4---|-----------------|----------------|------------------|

|

| H. E E +H E E Q H +E E E E +H +E E Q

||--------------|-----------------|----------------|------------------|

||o-------------|-----------------|----------------|------------------|

||o-----------2-|-(2)--------4-6--|-4----(4)-6-7-0-|-(0)----(0)-6-7---|

||--0-------4---|-----------------|----------------|------------------|





E5 B5 G#m A

H. E E +H +E E Q H +Q. E +H E E Q

|-------------|-----------------|----------------|----------------||

|-------------|-----------------|----------------|---------------o||

|-------------|-----------------|----------------|----------------||

|-------------|--------------1--|----------------|----------1-2---||

|-----------2-|-(2)----(2)-4----|----------------|---------------o||

|-0-------4---|-----------------|-4----(4)-----5-|-(5)------------||

|

| H. E E H E E Q H +E E E E +H E E Q

|-------------|-----------------|----------------|----------------||

|-------------|-----------------|----------6-----|---------------o||

|-----------2-|--2---------4-6--|--------------0-|-(0)------6-7--o||

|-0-------4---|-----------------|-4----(4)---4---|----------------||





E5 B5 C#m7 A E5

H +E E E E +H +E E E E +H +E E E E +H +E E E E

|----------------|------------------|------------------|------------------|

|----------------|------------------|------------------|------------------|

|----------------|------------------|------------------|------------------|

|----------------|--------------1---|------------1-2---|------------1-2---|

|--------------2-|-(2)----(2)-4---4-|-(4)----(4)-----0-|-(0)----(0)-------|

|-0----(0)-2-4---|------------------|------------------|----------------0-|

|

| H +E E E E +H +E E E E +H +E E E E +H +E E E E

|----------------|------------------|------------------|------------------|

|----------------|------------------|------------------|------------------|

|--------------2-|-(2)----(2)-4-6-4-|-(4)----(4)-6-7-0-|-(0)----(0)-6-7---|

|-0----(0)-2-4---|------------------|------------------|----------------0-|





B5 G#m A

+H +E E E E +H +E E E E +H +Q. E +H. E E

|------------------|------------------|------------------|----------------||

|------------------|------------------|------------------|----------------||

|------------------|------------------|------------------|----------------||

|------------------|--------------1---|------------------|----------------||

|----------------2-|-(2)----(2)-4-----|------------------|----------------||

|-(0)----(0)-2-4---|----------------4-|-(4)----(4)-----5-|-(5)--------0-0-||

|

| +H +E E E E +H +E E E E +H +E E E E +H Q E E

|------------------|------------------|------------------|----------------||

|------------------|------------------|------------6-----|----------------||

|----------------2-|-(2)----(2)-4-6---|----------------0-|-(0)----0/------||

|-(0)----(0)-2-4---|----------------4-|-(4)----(4)---4---|------------0-0-||





2nd Verse

B5 C#m7 A

+H. E E +H +E E Q H +E E E E +H +E E Q

|--------------|-----------------|----------------|-----------------|

|--------------|-----------------|----------------|-----------------|

|--------------|-----------------|----------------|-----------------|

|--------------|--------------1--|----------1-2---|------------1-2--|

|------------2-|-(2)----(2)-4----|-4----(4)-----0-|-(0)----(0)------|

|-(0)------4---|-----------------|----------------|-----------------|

|

| +H. E E +H E E Q H +E E E E +H +E E Q

|--------------|-----------------|----------------|-----------------|

|--------------|-----------------|----------------|-----------------|

|------------2-|-(2)--------4-6--|-4----(4)-6-7-0-|-(0)----(0)-6-7--|

|-(0)------4---|-----------------|----------------|-----------------|





E5 B5 G#m A

Added by tabs-database.com and our distinguished partners
Get this song at amazon.com      Ebay     Ringtones Ringtones  


Learn to play: Songwriting, Piano, Harmonica, Guitar
More Journey lyrics available at Muzikum

Related Journey Tabs

Separate Ways tabs
Whos Crying Now Bass tabs
Cloudy Days tabs
When I Think Of You tabs
Dont Stop Believing tabs
You tabs
Lights tabs
Message Of Love tabs
Edge Of The Blade tabs
Dont Stop Believin tabs
Roses tabs
Desert You tabs
Dont Stop Believing Solo tabs
The Lights tabs
Any Way U Want It tabs
Seperate Ways Solo tabs
Me And You Love tabs
When You Love A Woman tabs
Stone In Love tabs
Any Way You Want It tabs


Guitar Tabs









All tabs are property and copyright of their owners. All tabs provided for educational purposes only. Privacy Policy, DMCA