Journey

Any Way U Want It Tabs



More from Journey

Journey Tabs
Journey Chords
Journey Bass
Journey Lyrics



~
|---|-----------|----------|----------|
|---|-----------|----------|----------|
|-0-|-----------|----------|----------|
|-0-|-------4-4-|--------2-|----------|
|-x-|-------5-5-|--------2-|--------3-|
|-3-|-------2-2-|--------0-|----------|


Verse
~~~ ~~~~~~~~ PM------|
|-------------------|-----------------3-||-----------------|
|-------------------|-----------------3-||o----------------|
|-------------------|-----------------0-||-------------2-2-|
|-------------------|-----0-2-0-------0-||-------------0-0-|
|-(3)-2-3-2-3-2---3-|-(3)-------3-2-0---||o----------------|
|---------------3---|-----------------3-||---3-3-3-3-2-2-2-|


PM------| PM------| ~~~~~~~~
|----------------|----------------|-------------------|
|----------------|----------------|-----------------3-|
|----------------|----------------|-----------------0-|
|------------2-2-|----------------|-----------------0-|
|------------2-2-|--------------3-|-(3)-2-3-2-3-2-----|
|--2-2-2-2-0-0-0-|--0-0-0-0-0-0---|---------------3-3-|


PM------| PM------| PM------| ~
|----------------|----------------|----------------|
|----------------|----------------|----------------|
|------------2-2-|----------------|----------------|
|------------0-0-|------------2-2-|----------------|
|----------------|------------2-2-|--------------3-|
|--3-3-3-3-2-2-2-|--2-2-2-2-0-0-0-|--0-0-0-0-0-0---|


~~~ PM------| PM------|
|-------------------|----------------|----------------|
|-----------------3-|----------------|----------------|
|-----------------0-|------------2-2-|----------------|
|-----------------0-|------------0-0-|------------2-2-|
|-(3)-2-3-2-3-2-----|----------------|------------2-2-|
|---------------3-3-|--3-3-3-3-2-2-2-|--2-2-2-2-0-0-0-|


PM------| ~~~~~~~~ PM------|
|----------------|-------------------|----------------|
|----------------|-----------------3-|----------------|
|----------------|-----------------0-|------------2-2-|
|----------------|-----------------0-|------------0-0-|
|--------------3-|-(3)-2-3-2-3-2-----|----------------|
|--0-0-0-0-0-0---|---------------3-3-|--3-3-3-3-2-2-2-|


PM------| PM------| ~
|----------------|----------------|
|----------------|----------------|
|----------------|----------------|
|------------2-2-|----------------|
|------------2-2-|--------------3-|
|--2-2-2-2-0-0-0-|--0-0-0-0-0-0---|


Chorus
~~~
|-----------------3-||-(3)-------(3)-----|-----------------0-|
|-----------------3-||-(3)-------(3)---3-|-(3)-------(3)---0-|
|-----------------0-||-(0)-------(0)---2-|-(2)-------(2)-----|
|-----------------0-||-(0)-------(0)---0-|-(0)-------(0)---2-|
|-(3)-2-3-2-3-2-----||-------------------|-----------------2-|
|---------------3-3-||-(3)-------(3)---2-|-(2)-------(2)---0-|
|
| Gtr II
|-----------------3-||-(3)--(3)--------2-|-(2)---(2)-------0-|
|-------------0-0-0-||-(0)--(0)--------3-|-(3)---(3)-------0-|
|-------------0-0-0-||-(0)--(0)--------2-|-(2)---(2)-------0-|
|-------------0-0-0-||-(0)--(0)--------0-|-(0)---(0)-------2-|
|-------------------||-------------------|-------------------|
|-------------------||-------------------|-------------------|


~~~~~~~~
|-(0)----(0)-----|-------------------3-|-(3)-------------|
|-(0)----(0)-----|-------------------3-|-(3)-----------3-|
|----------------|-------------------0-|-(0)-----------2-|
|-(2)----(2)-----|-------------------0-|-(0)-----------0-|
|-(2)----(2)---3-|-(3)-2-3-2--3--2-----|-----------------|
|-(0)----(0)-----|-----------------3-3-|-(3)---------2-2-|
|
|--0-----(0)-----|-------------------3-|-(3)----(3)----2-|
|--0-----(0)---5-|-(5)-------(5)-----0-|-(0)----(0)----3-|
|--0-----(0)---5-|-(5)-------(5)-----0-|-(0)----(0)----2-|
|--2-----(2)---5-|-(5)-------(5)-----0-|-(0)----(0)----0-|
|--------------3-|-(3)-------(3)-------|-----------------|
|----------------|---------------------|-----------------|


1.
~~~~~~~~
|--------------0-|-(0)----(0)-----|-----------------3--||
|-(3)----(3)---0-|-(0)----(0)-----|-----------------3-o||
|-(2)----(2)-----|----------------|-----------------0--||
|-(0)----(0)---2-|-(2)----(2)-----|-----0-2-0-------0--||
|--------------2-|-(2)----(2)---3-|-(3)-------3-2-0---o||
|-(2)----(2)---0-|-(0)----(0)-----|-----------------3--||
|
|-(2)----(2)---0-|-(0)----(0)-----|--------------------||
|-(3)----(3)---0-|-(0)----(0)---5-|-(5)---------------o||
|-(2)----(2)---0-|-(0)----(0)---5-|-(5)----------------||
|-(0)----(0)---2-|-(2)----(2)---5-|-(5)----------------||
|----------------|--------------3-|-(3)---------------o||
|----------------|----------------|--------------------||


2.
Gtr I
|-0-------------15-15-15-|-17--15-15-15-15--15-15-15-15-15-15-15-17b19-17b19==|
|-0---------/15----------|----------------------------------------------------|
|------------------------|----------------------------------------------------|
|-2----------------------|----------------------------------------------------|
|-2----------------------|----------------------------------------------------|
|-0----------------------|----------------------------------------------------|
|
| Gtr II
|-0----(0)---------------|----------------------------3-----------------------|
|-0----(0)-------------5-|-(5)----------(5)-----------0-----------------------|
|-0----(0)-------------5-|-(5)----------(5)-----------0-----------------------|
|-2----(2)-------------5-|-(5)----------(5)-----------0-----------------------|
|----------------------3-|-(3)----------(3)-----------------------------------|
|------------------------|----------------------------------------------------|


Guitar Solo
~~~~~~~~~
|-(17)r--17-17pb19-17b19--17b19-17-|-(17)--15-17-17b19r=17-15-|
|----------------------------------|--------------------------|
|----------------------------------|--------------------------|
|----------------------------------|--------------------------|
|----------------------------------|--------------------------|
|----------------------------------|--------------------------|
|
|--(3)-------------(3)-----------2-|--(2)--------(2)--------0-|
|--(0)-------------(0)-----------3-|--(3)--------(3)--------0-|
|--(0)-------------(0)-----------2-|--(2)--------(2)--------0-|
|--(0)-------------(0)-----------0-|--(0)--------(0)--------2-|
|----------------------------------|--------------------------|
|----------------------------------|--------------------------|


|-17--15-15-15-----------------------------------------------|
|--------------17-15h17p15----17--15-------------------------|
|--------------------------16--------16-14-12-14-12----12-12-|
|---------------------------------------------------14-------|
|------------------------------------------------------------|
|------------------------------------------------------------|
|
|-(0)-------------------------(0)----------------------------|
|-(0)-------------------------(0)-----------------5----------|
|-(0)-------------------------(0)-----------------5----------|
|-(2)-------------------------(2)-----------------5----------|
|-------------------------------------------------3----------|
|------------------------------------------------------------|


~~~~~~~~~~~~~~~~~~~~~~
|-------------------------------------------------|
|-------12-15-12----12-15b17==(15)-(15)-(15)r-13--|
|-14b16----------14-------------------------------|
|-------------------------------------------------|
|-------------------------------------------------|
|-------------------------------------------------|
|
|----------------------------------------------3--|
|-(5)--------------------------(5)-------------0--|
|-(5)--------------------------(5)-------------0--|
|-(5)--------------------------(5)-------------0--|
|-(3)--------------------------(3)----------------|
|-------------------------------------------------|


|-------------------------------------|
|-12--13-13pb15r13-12-13--12----------|
|----------------------------14-16b18r|
|-------------------------------------|
|-------------------------------------|
|-------------------------------------|
|
|-(3)-----------------(3)--------2----|
|-(0)-----------------(0)--------3----|
|-(0)-----------------(0)--------2----|
|-(0)-----------------(0)--------0----|
|-------------------------------------|
|-------------------------------------|


~~
|-----------------------------------------------------|
|-----------------------------------------------------|
|-16--14-14-16-14-13-14-12--14-12----12---------------|
|---------------------------------14----14------------|
|------------------------------------------13S(12)-10-|
|-----------------------------------------------------|
|
|-(2)-------------------(2)--------------0------------|
|-(3)-------------------(3)--------------0------------|
|-(2)-------------------(2)--------------0------------|
|-(0)-------------------(0)--------------2------------|
|-----------------------------------------------------|
|-----------------------------------------------------|


Bridge
~~~~ ~~~~~~~~~
|--------------------------------|----------------3-||---------------------|
|--------------------------------|----------------3-||-------------------3-|
|--------------------------------|----------------0-||-------------------2-|
|-------------12-14--12----------|----------------0-||-------------------0-|
|-(10)--12s14-----------14s12-10-|-(10)-------------||---------------------|
|--------------------------------|---------12S==3-3-||-----3-3-3--3--2-2-2-|
|
|--(0)-----------(0)-------------|----------------3-||-(3)-------(3)-----2-|
|--(0)-----------(0)-----------5-|--(5)----(5)----0-||-(0)-------(0)-----3-|
|--(0)-----------(0)-----------5-|--(5)----(5)----0-||-(0)-------(0)-----2-|
|--(2)-----------(2)-----------5-|--(5)----(5)----0-||-(0)-------(0)-----0-|
|------------------------------3-|--(3)----(3)------||---------------------|
|--------------------------------|------------------||---------------------|


PM--------------------------|
|---------------------|--------------------|-----x-3-------------3---|
|---------------------|------------------3-|-----x-1--x-3--------3---|
|---------------------|------------------0-|-----x-0--x-0--------0---|
|-------------------2-|---------------2----|---------------------0---|
|-------------------2-|---------------2--3-|----------x-3------------|
|-----2-2-2--2--0-0-0-|-----0-0-0--0--0----|----------------3--3-3---|
|
|-(2)-------(2)-----0-|-(0)-------(0)------|-----------------------3-|
|-(3)-------(3)-----0-|-(0)-------(0)----5-|-(5)-----------(5)-----0-|
|-(2)-------(2)-----0-|-(0)-------(0)----5-|-(5)-----------(5)-----0-|
|-(0)-------(0)-----2-|-(2)-------(2)----5-|-(5)-----------(5)-----0-|
|---------------------|------------------3-|-(3)-----------(3)-------|
|---------------------|--------------------|-------------------------|


|-----------------------|---------------------|
|-----------------------|---------------------|
|-----------------------|---------------------|
|-----------------------|-------------------2-|
|-----------------------|-------------------2-|
|-----3-3-3-3--3--2-2-2-|-(2)-2-2-2--2--0-0-0-|
|
|-(3)---------(3)-----2-|-(2)-------(2)-----0-|
|-(0)---------(0)-----3-|-(3)-------(3)-----0-|
|-(0)---------(0)-----2-|-(2)-------(2)-----0-|
|-(0)---------(0)-----0-|-(0)-------(0)-----2-|
|-----------------------|---------------------|
|-----------------------|---------------------|


|--------------------|--------------------------|
|--------------------|-----3--3-----------------|
|------------------0-|-----0--0-----0-5b7-5b7===|
|--------------------|--------------------------|
|---------------2--3-|-----3--3-----------------|
|-----0-0-0--0--0----|--------------------------|
|
|-(0)-------(0)------|--------------------3-----|
|-(0)-------(0)----5-|-(5)------(5)-------0-----|
|-(0)-------(0)----5-|-(5)------(5)-------0-----|
|-(2)-------(2)----5-|-(5)------(5)-------0-----|
|------------------3-|-(3)------(3)-------------|
|--------------------|--------------------------|


Guitar Break
~~~~ ~~~
|--------------------|----------------------------|
|--------------------|----------------------------|
|-(5)r--5-4--2---0-2-|--4--5-4-2-(2)---2-4b5==(4)r|
|--------------------|---------------5------------|
|--------------------|----------------------------|
|--------------------|----------------------------|
|
|-(3)-------(3)----2-|-(2)-------(2)-----0--------|
|-(0)-------(0)----3-|-(3)-------(3)-----0--------|
|-(0)-------(0)----2-|-(2)-------(2)-----0--------|
|-(0)-------(0)----0-|-(0)-------(0)-----2--------|
|--------------------|----------------------------|
|--------------------|----------------------------|


~ ~~~~~~~~~~~~~~~~~~~~~~
|----------------------------|-------------------|
|----------------------------|-------------------|
|-(4)-2--2h4-(4)-2-(2)-4p2---|--------------5b7==|
|--------------------------5-|-(5)----(5)--------|
|----------------------------|-------------------|
|----------------------------|-------------------|
|
|-(0)--------(0)-------------|--------------3----|
|-(0)--------(0)---------5---|-(5)----(5)---0----|
|-(0)--------(0)---------5---|-(5)----(5)---0----|
|-(2)--------(2)---------5---|-(5)----(5)---0----|
|------------------------3---|-(3)----(3)--------|
|----------------------------|-------------------|


~~~~ ~~~ ~~~~~~
|--------------------|----------------------------|
|--------------------|----------------------------|
|-(5)r--5-4--2---0-2-|--4--5-4-2-(2)-0-2-4b5==(4)r|
|--------------------|----------------------------|
|--------------------|----------------------------|
|--------------------|----------------------------|
|
|-(3)-------(3)----2-|-(2)-------(2)-----0--------|
|-(0)-------(0)----3-|-(3)-------(3)-----0--------|
|-(0)-------(0)----2-|-(2)-------(2)-----0--------|
|-(0)-------(0)----0-|-(0)-------(0)-----2--------|
|--------------------|----------------------------|
|--------------------|----------------------------|


~
|---------------------------------|
|---------------------------------|
|-(4)-2--4b5==(4)r(4)-2-(2)h4p2---|
|-------------------------------5-|
|---------------------------------|
|---------------------------------|
|
|-(0)-------------(0)-------------|
|-(0)-------------(0)---------5---|
|-(0)-------------(0)---------5---|
|-(2)-------------(2)---------5---|
|-----------------------------3---|
|---------------------------------|


Outro
G D/F# Em
Gtr II
| | | | | | |
/ / / / / / /

~~~ ~~~~~~~~~~~~ ~ ~~~~~~
|--------------------||---------------------|------------------------------|
|--------------------||---------------------|------------------------------|
|---------------5b7==||=(5)-(5)r-5-4-2--0-2-|-[4]-5-4-2-(2)---2-4b5==(4)r==|
|-(5)---------0------||---------------------|---------------5--------------|
|--------------------||---------------------|------------------------------|
|--------------------||---------------------|------------------------------|
|
|--------------------||---------------------|------------------------------|
|-(5)----(5)---------||---------------------|------------------------------|
|-(5)----(5)---------||---------------------|------------------------------|
|-(5)----(5)---------||---------------------|------------------------------|
|-(3)----(3)---------||---------------------|------------------------------|
|--------------------||---------------------|------------------------------|


C G D/F#
| | | | | | | | |
/ / / / / / / / /

~~~~~~~~ ~~~~~~~~ ~
|-------------------------------|--------------|-----------------|
|-------------------------------|------------3-|-(3)-------------|
|-(4)-2--4b5==(4)r(4)-2-(2)h4---|--------------|------5-4-2--0-2-|
|-----------------------------5-|-(5)------0---|-----------------|
|-------------------------------|--------------|-----------------|
|-------------------------------|--------------|-----------------|


Em
| | |
/ / /

~~~~~~
|----------------------------|
|----------------------------|
|-[4]-5-4-2-(2)-0-2-4b5==(4)r|
|----------------------------|
|----------------------------|
|----------------------------|


C G
| | | | | |
/ / / / / /

~~~~~~~~
|---------------------------------|-------------------------|
|---------------------------------|-------------------------|
|-(4)-2--4b5==(4)r(4)-2-(2)h4p2---|--------2h4p2-0---2h4p2--|
|-------------------------------5-|-(5)------------0--------|
|---------------------------------|-------------------------|
|---------------------------------|-------------------------|


D/F# Em
| | | | | |
/ / / / / /

~~~~~~~~~ ~
|----------------------------------|----------------------------10-|
|----------------------------------|---------8--8--10b12==(10)r----|
|-0h2h4p2p0-2h4p2p0h2-4p2p0h2-5S7--|-(7)--/9-----------------------|
|----------------------------------|-------------------------------|
|----------------------------------|-------------------------------|
|----------------------------------|-------------------------------|


C
| | |
/ / /

|------------10-------10-------10------------10------------10-------|
|-10b12-(10)----10b12----10b12----10b12-(10)----10b12-(10)----10b12-|
|-------------------------------------------------------------------|
|-------------------------------------------------------------------|
|-------------------------------------------------------------------|
|-------------------------------------------------------------------|


G
| | |
/ / /

~~
|------------10---------------10b12-(10)-10-10-|
|-10b12-(10)----10pb12r(10)-8------------------|
|----------------------------------------------|
|----------------------------------------------|
|----------------------------------------------|
|----------------------------------------------|


D/F#
| | |
/ / /

~~~~ ~~~
|-(10)--8-10-------10-12-10----0-10h12-15-|
|------------10s12----------12------------|
|-----------------------------------------|
|-----------------------------------------|
|-----------------------------------------|
|-----------------------------------------|


Em C
| | | | | |
/ / / / / /

~~~~~~ ~~
|-(15)--12-15-15--12-15-15-12-|-15--12-15-15-12-15--12-15-15-|
|-----------------------------|------------------------------|
|-----------------------------|------------------------------|
|-----------------------------|------------------------------|
|-----------------------------|------------------------------|
|-----------------------------|------------------------------|


G D/F#
| | | | | |
/ / / / / /

~~~ ~~~~~~~~~~~~
|-/17---17b19==(17)r---19b20==|=(19)r---20b22==(20)r---22b24-(22)-|
|-----------------------------|-----------------------------------|
|-----------------------------|-----------------------------------|
|-----------------------------|-----------------------------------|
|-----------------------------|-----------------------------------|
|-----------------------------|-----------------------------------|


Em
| | |
/ / /

|-22pb24-22pb24-22pb24-22pb24-22pb24-22pb24-22pb24-22pb24--|
|----------------------------------------------------------|
|----------------------------------------------------------|
|----------------------------------------------------------|
|----------------------------------------------------------|
|----------------------------------------------------------|


C
| | |
/ / /

|-22b24-22pb24-22pb24-22b24-22pb24-22pb24-22b24-22pb24-|
|------------------------------------------------------|
|------------------------------------------------------|
|------------------------------------------------------|
|------------------------------------------------------|
|------------------------------------------------------|

G D/F#
| | | | | |
/ / / / / /

|-22pb24-22b24-22pb24-22pb24-22pb24-22b24-22pb24-22b24-22pb24-|
|-------------------------------------------------------------|
|-------------------------------------------------------------|
|-------------------------------------------------------------|
|-------------------------------------------------------------|
|-------------------------------------------------------------|




|-22b24-22pb24-22-20-19-20-22-20b22===|
|-------------------------------------|
|-------------------------------------|
|-------------------------------------|
|-------------------------------------|
|-------------------------------------|

Em
| | |
/ / /

~~~~~
|-(20)r--20-19-17-19-20-19b20r|
|-----------------------------|
|-----------------------------|
|-----------------------------|
|-----------------------------|
|-----------------------------|


C
| | |
/ / /

|-19-17-19-17-------17----19-17-------------------------------|
|-------------20-20-20b22-------20-17-20-17-17-20-17-19-17-17-|
|-------------------------------------------------------------|
|-------------------------------------------------------------|
|-------------------------------------------------------------|
|-------------------------------------------------------------|


G D/F#
| | | | | |
/ / / / / /

|----------------------------------------------------3-|-(3)----------|
|-17----17-17----20-17-17-------20-22b24==(22)r------0-|-(0)--------3-|
|-19b21----19b21----------19s21-----------------12--0-|-(0)--------2-|
|-----------------------------------------------12--0-|-(0)--------0-|
|------------------------------------------------------|--------------|
|----------------------------------------------------3-|-(3)------2-2-|


Em C G
| | | | | | | | |
/ / / / / / / / /

|--------------|----------------|--------------3--|
|-(3)----------|----------------|--------------3--|
|-(2)----------|----------------|--------------0--|
|-(0)--------2-|-(2)----(2)---5-|--5--5--------0--|
|------------2-|-(2)----(2)---3-|--3--3-----------|
|-(2)------0-0-|-(0)----(0)-----|--------x-3-3-3--|


G D/F# C
| | | | | | | | | | | |
/ / / / / / / / / / / /

|-(3)----------|--------------|----------------|------------------3-*|--|
|-(3)--------3-|-(3)----------|----------------|------------------3-*|--|
|-(0)--------2-|-(2)----------|----------------|--5-5---5-5-------0-*|--|
|-(0)--------0-|-(0)--------2-|-(2)----(2)---5-|--3-3---3-3-------0-*|--|
|--------------|------------2-|-(2)----(2)---3-|--------------2-----*|--|
|-(3)------2-2-|-(2)------0-0-|-(0)----(0)-----|----------------3-3-*|--|

thats it



Get this song at amazon.com      Ebay     Ringtones Ringtones  


Learn to play: Songwriting, Piano, Harmonica, Guitar
More Journey lyrics available at Muzikum

Related Journey Tabs

Seperate Ways Worlds Apart tabs
Feeling That Way anytime tabs
Its Just The Rain tabs
Any Way You Want It tabs
Seperate Ways Solo tabs
Me And You Love tabs
Dont Stop Believing Solo tabs
Lady Luck tabs
Seperate Ways tabs
Whos Crying Now Bass tabs
Cloudy Days tabs
Lovely Woman tabs
Stone In Love tabs
Message Of Love tabs
Don\'t Stop Believin\' tabs
When You Love A Woman tabs
Don Stop Believing tabs
Rain tabs
Whos Crying Now tabs
It's Just The Rain tabs


Guitar Tabs









All tabs are property and copyright of their owners. All tabs provided for educational purposes only. Privacy Policy, DMCA