Jonny Lang

Jonny Lang - The Levee guitar tab

---' The Levee '---

performed by Jonny Lang

on Wander this World

-----------------------

find more of Jonny Lang at

http://wanderworld.cjb.net

'-----------------------'

Verse:

I've been down to Memphis

G5 E5

I couldn't find me no peace

A5 G5 E5

My soul is getting restless like I need some release

A5 G5 B5 A5

Heading for the desert

See what I can find

You know the river holds the answers to the questions in my mind

CHORUS:

e|----------------

b|----------------

g|---------------- Take me down, to the levee where the women stay... etc.

D|--0h2-0------2--

A|--------0----2--

E|----------3--0--

e|--0----0------0---------------

b|--3/5--3-p-0--3-p-0-----------

g|---------------------0h2-0----

D|---------------------------2--

A|------------------------------

E|------------------------------

------------------------------------------

-------------------------

---' The Levee '---

performed by Jonny Lang

on Wander this World

-----------------------

find more of Jonny Lang at

http://wanderworld.cjb.net

'-----------------------'

Verse:

I've been down to Memphis

G5 E5

I couldn't find me no peace

A5 G5 E5

My soul is getting restless like I need some release

A5 G5 B5 A5

Heading for the desert

See what I can find

You know the river holds the answers to the questions in my mind

CHORUS:

Take me down, to the levee where the women stay... etc.

------------------------------------------

-------------------------

Get this song at:  amazon.com sheetmusicplus.com

Share your thoughts

0 Comments found