Jonny Lang

Jonny Lang - Still Rainin' guitar tab

---' still rainin '---

performed by Jonny Lang

on Wander this World

-----------------------

find more of Jonny Lang at

http://wanderworld.cjb.net

'-----------------------'

~~~~ ~~~~~~ 1/2 ~~~~~~~ ~~~~

e|------------------------------------6-^--6--6p4------------------------------

b|---------------4/6--6-----------4h6-------------6-------------4--------------

g|----------------------------3/5--------------------------3/5----53p1--------

D|---1h3----------------------------------------------------------------3-3----

A|-----------------------------------------------------------------------------

E|-----------------------------------------------------------------------------

~~

e|-----------------------

b|-----------------------

g|-----------------------

D|--1h3-1-----------1h3--

A|--------3-1------------

E|--------------4-1------

Verse: F5

Chorus:

Look out my window And it's still rainin'

e|--------------------------------------------------------------

b|--------------------------------------------------------------

g|---------------------3----------------------------------------

D|-------------3----6--3-------------------3----6-------------3-

A|-------------3----6--1-------------------3----6----1--2p1-----

E|-------------1----4----------------------1----4-----------4---

------------------------------------------

-------------------------

Still Rainin'

(Bruce McCabe)

this is the basic chords in the song the ones in ( ) sounds right as well

if you have corrections please email them to me bluesy@worldonline.dk

F

Clouds, one by one, fill the sky

Just like these tears that fill my eyes

I know by now she ain't comin' back

I watch my world slowly fade into black

F Fm7 Bb F

Look out my window it's still rainin'

Look out my window it's still rainin'

F

They say that time heals everything

I've felt the pain that love can bring

It don't get no better with each passing day

Any hope I had is slowly slipping away

F Fm7 Bb F

Look out my window, it's still rainin'

Look out my window, it's still rainin'

C# F C# C Bb

I thought the morning would rescue me

But the rain keeps falling endlessly, endlessly

solo: F Fm7 Bb F

F

Sometimes I wonder what'll become of me

There ain't much left of what I used to be

Her love shone on me like the morning light

Now here I am alone again tonight

F Fm7 Bb F

Look out my window, it's still rainin'

Look out my window, it's still rainin'

Get this song at:  amazon.com sheetmusicplus.com

Share your thoughts

0 Comments found