Jonny Lang

Jonny Lang - RackEm Up guitar tab

Rack ‘Em Up

Written by Bruce McCabe

Performed by Jonny Lang

from the album Lie to me

BLUES SHUFFLE - MODERATE PACE

C7 8 10 8 9 8 8

F9 X 8 7 8 8 8

G9(10TH) X 10 9 10 10 10

A7 5 7 5 6 5 5

D X 5 7 7 7 X

G7(3RD) 3 5 3 4 3 3

INTRO (BASS GUITAR/DRUM HIGH HAT)

-----------|----------------------|-5-3--------------------------

-----------|----------------------|-----5-4-3--------------------

-3-------0-|-REPEAT W/ MINOR------|-----------6-5-4-3------------

---6-5-3---|-CHANGES DURING REF 1-|------------------------------

" guy down there..."

(C7) (BASS WALK)

I used to hang out, down at Jack's Pool Hall

You go down there, don't do nothin' at all

You wanted to play some cards there was a game in the back

You wanted to shoot of somethin', you went and talked to Jack

If you had a little money you was a grade A fool

There was a guy down there who used to shoot a little pool

C7

Rack ‘em up (ADD GUITAR, MODERATE SHUFFLE)

C7

Rack ‘em up

F9

Rack ‘em up

C7

Rack ‘em up

G9(10TH)

Till the day he was dead,

F9 C7 A7 D G7(3RD)

that all they ever said was rack ‘em up

C7

He didn't own a TV set, he didn't own no car

(C9)

He ate whatever Jack was makin' back behind the bar

They said he had a wife but, she left him in tears

(..........ALL STOP - VOCAL ONLY..........)

He hadn't been home once in twenty-five years

C7

Rack ‘em up

Rack ‘em up

GUITAR SOLO ("RACK ‘EM UP" X 2)

F9

They come from all over thinkin' they were pretty hot

C7

They put the money on the table, wanna play the best we got

F9

Nine in the corner, five in the side

C7

Take a hundred dollar bill and just, let it ride

F9

I'd tell him, "listen hear sonny, there ain't no disaster

G9 (ALL STOP - VOCAL ONLY.........DRUM....)

there ain't no shame in bein' beaten by a master"

C7

Rack ‘em up

C7

Rack ‘em up

F9

Yea, rack ‘em up

C7

Rack ‘em up, rack ‘em up

G9 C7 A7 D G7(3RD)

Til' the day he was gone, they said it all day long rack ‘em up

TROMBONE / GUITAR SOLO ("RACK ‘EM UP" X 3)

END (OMIT C7 A7 D G7 RUN - PAUSE FINAL C7, SLIDE INTO C7 END)

C7 PAUSE............. SLIDE ONE FRET TO C7

-11-8T11---------------8S6---------------------------------------

---------11-8----------------------------------------------------

--------------10 8B----------------------------------------------

--------------------10-------------------------------------------

-----------------------------------------------------------------

-----------------------------------------------------------------

============

Guitar Solo

-----------------11-8--------------|-----------------------------

-8-10-11-11-10-8------11-8---------|-----------------------------

---------------------------8B------|-----------------------------

------------------------------10V--|-----------------------------

-----------------------------------|-----------------------------

-----------------------------------|-----------------------------

-----------------------------------|-----------------------------

-8-10-10-11-11-10-8----------------|-----------------------------

--------------------8B-------------|-----------------------------

-----------------------10-9-8V-----|-----------------------------

-----------------------------------|-----------------------------

-----------------------------------|-----------------------------

-----11-13-13B-11----11B----11B----|-----------------------------

-S13--------------13-----13--------|-----------------------------

-----------------------------------|-----------------------------

-----------------------------------|-----------------------------

-----------------------------------|-----------------------------

-----------------------------------|-----------------------------

(Note 2 bends - one touch)

------8-10BB-8----8-----|-B10-8----8-|-15B-15-12---------8----|--

-8H10----------10---10S-|-------10---|-----------15-8T10---11-|--

------------------------|------------|------------------------|--

------------------------|------------|------------------------|--

------------------------|------------|------------------------|--

------------------------|------------|------------------------|--

-11-8---------|-8V-----11V-10-8---|------8-----------------------

------11-8----|----10V------------|-8H10-------------------------

-----------8B-|-------------------|------------------------------

--------------|-------------------|------------------------------

--------------|-------------------|------------------------------

--------------|-------------------|------------------------------

tabbed by Steve Crane

Lyrics corrected by DAN ROLAND

Get this song at:  amazon.com sheetmusicplus.com

Share your thoughts

0 Comments found